-------------------------------------------------------------------------------
What happened to us - Hoobastank
-------------------------------------------------------------------------------
Tabbed by:
Email: [email protected]
Tuning:drop d
Intro: guitar 1
e|-----------------------------------------------------------------------|
B|-----------------------------------------------------------------------|
G|-----------------------------------------------------------------------|
D|-----10------10-------10-----10--------10-----10-----10-----10---------| 4x
A|---8----8--8----8--8-----8-8----87--7----7-7----7-7----7-7----7/8-----|
D|-0---------------------------------------------------------------------|
guitar 2
e|-------------------------------------I
B|-------------------------------------I
G|-------------------------------------|play notes repeatedly
D|-------------------------------------|
A|-------------------------------------|
D|---0-------8---------10----------0---|
Verse:?

Chorus
e|----------------------------------------------------------------------|
B|----------------------------------------------------------------------|
G|-----------------5------------------5---------------------------------|
D|-000-32--0--32-5--000-32-0--32--5---5---8---10--------------------| 2x
A|-000-32--0--32-3--000-32-0--32--3---5---8---10--------------------|
D|-000-32--0--32----000-32-0--32------5---8---10--------------------|
| / slide up
| slide down
| h hammer-on
| p pull-off
| ~ vibrato
| + harmonic
| x Mute note
===============================================================================




Ваше мнение



Капча