Band: Hoobastank
Title: Unaffected
Album: The Reason
Transcribed by slipknot4
Email: [email protected]

Intro / Verse (distorted)
E|------------------------------------------------------------------------------------------
B|------------------------------------------------------------------------------------------
G|------------------------------------------------------------------------------------------
D|-11-11-11---------10-10-10--11-11-11-------10-10--5-5-5----5-------------------------10--
A|-----------7-7-7----------------------7-7-------------5--5------2--7/9—7----------3--8---
E|------------------------------------------------------3-------0------------1-0-1---------

Interlude
E|-----------------------------------------------------------------------------
B|-----------------------------------------------------------------------------
G|-4/55--5/77--7/99--9/10-10---10/12-12---12/14-14---14/16-16---16/17-17---17--
D|-x-xx--x-xx--x-xx--x-x--x----x--x--x-----x--x--x----x--x--x----x--x--x----x--
A|-2/33--3/55--5/77--7/8--8----8-/10-10---10/12-12---12/14-14---14/15-15---15--
E|-----------------------------------------------------------------------------

Chorus
E|-----------------------------------------------------------------------------
B|-----------------------------------------------------------------------------
G|-----------------------------------------------------------------------------
D|-55555555--44444444----------------------------------------------------------
A|-33333333--22222222--77777777--55555555--2222222222222222--3333333333333333--
E|---------------------55555555--33333333--0000000000000000--1111111111111111--

Verse
E|------------------------------------------------------------------------------------------
B|------------------------------------------------------------------------------------------
G|------------------------------------------------------------------------------------------
D|-11-11-11---------10-10-10--11-11-11-------10-10--5-5-5----5-------------------------10--
A|-----------7-7-7----------------------7-7-------------5--5------2--7/9—7----------3--8---
E|------------------------------------------------------3-------0------------1-0-1---------

Bridge
E|--------------------------------
B|--------------------------------
G|-4/55--5/77--7/99--9/10-10---10-
D|-x-xx--x-xx--x-xx--x-x--x----x--
A|-2/33--3/55--5/77--7/8--8----8--
E|--------------------------------

Chorus
E|-----------------------------------------------------------------------------
B|-----------------------------------------------------------------------------
G|-----------------------------------------------------------------------------
D|-55555555--44444444----------------------------------------------------------
A|-33333333--22222222--77777777--55555555--2222222222222222--3333333333333333--
E|---------------------55555555--33333333--0000000000000000--1111111111111111--

Interlude (clean)
E|----------------------------------------------------------------------
B|----------------------------------------------------------------------
G|----------------------------------------------------------------------
D|-----------------------------------7-7-7-7-7-7-7-7--------------------
A|-7-7-7-7-7-7-7-7--5-5-5-5-5-5-5-5--5-5-5-5-5-5-5-5--3-3-3-3-3-3-3-3---
E|-5-5-5-5-5-5-5-5--3-3-3-3-3-3-3-3-------------------1-1-1-1-1-1-1-1---

Interlude
E|-----------------------------------------------------------------------------
B|-----------------------------------------------------------------------------
G|-4/55--5/77--7/99--9/10-10---10/12-12---12/14-14---14/16-16---16/17-17---17--
D|-x-xx--x-xx--x-xx--x-x--x----x--x--x-----x--x--x----x--x--x----x--x--x----x--
A|-2/33--3/55--5/77--7/8--8----8-/10-10---10/12-12---12/14-14---14/15-15---15--
E|-----------------------------------------------------------------------------

Chorus
E|-----------------------------------------------------------------------------
B|-----------------------------------------------------------------------------
G|-----------------------------------------------------------------------------
D|-55555555--44444444----------------------------------------------------------
A|-33333333--22222222--77777777--55555555--2222222222222222--3333333333333333--
E|---------------------55555555--33333333--0000000000000000--1111111111111111--

Outro (clean) (strummed) (figure out pattern for yourself :P)
E|-------
B|-------
G|-------
D|-------
A|---7---
E|---5---




Ваше мнение



Капча