------------------------------------------------------------
To be With You- Hoobastank
------------------------------------------------------------

By: AL.......great song i saw that it was on this archive so i decided to tab it.
its only the intro and some of the song because a lot of it its played over and over.
soo yeah

e|------0----------0------------------------0---------------
B|------0-----33-2---2-------------33-----2---2-------------
G|------0-------------------0------------------------0------
D|------0-----------------4---4--------------------4---4----
A|------0---------------------------------------------------
E|------0---------------------------------------------------
at the open strum part u use ur whammy key a little to get an effect...i couldnt
really figure out the verse part but ill keep trying! if u have any questions or
comments feel free to e-mail me at [email protected] hoobastank is a really
great band and if u like them check out Incubus! later!-AL




Ваше мнение



Капча