Standard Tuning
Intro
----------------------------------------------------------------------------
-----------------------7--9--------7--9-----7--9--------7--9-----------------
-----------------------------8--9--------8--------8--9--------8--------------
-----------------------------------------------------------------------------
-----7-7-7-7-7-7-7-7-7--7--7--7--7--7--7--7--7--7--7--7--7--7----------------
------------------------------------------0--0--0--0--0--0--0----------------
Verse
-----------------------------------------------------------------------------
----------9h10p9-------------------------------------------------------------
-----9x9x9-------------------------------------------------------------------
-----9x9x9--------x2---11x11x11--------------------------------------------x2
-----7x7x7-------------11x11x11--x2------------------------------------------
-----------------------9-x9-x9---------------------------------------------
-----------------------------------------------------------------------------
---2x2x2---------------------------------------------------------------------
---2x2x2---------------4x4x4-------------------------------------------------
---2x2x2----------x2---4x4x4-----x2------------------------------------------
-----------------------2x2x2-------------------------------------------------
-----------------------------------------------------------------------------
Chorus
-----------------------------------------------------------------------------
-----------------------------------------------------------------------------
---1x1x1-------6x6x6---------------------------------------------------------
---2x2x2-------6x6x6-------7x7x7-------9x9x9---------------------------------
---2x2x2---x2--4x4x4---x2--7x7x7---x2--9x9x9---x2----------------------------
---------------------------5x5x5-------7x7x7---------------------------------
Interlude
---------------2x2x2h3p2-----------------------------------------------------
---------------3x3x3------x2-------------------------------------------------
--2x2x2--------2x2x2---------------------------------------------------------
--2x2x2-------------------------------------------------------------------- 4
--1x1x1---x2-----------------------------------------------------------------
-----------------------------------------------------------------------------
End on
-------
-------
-2-----
-2-----
-1-----
-------
Order
Intro
Verse x2
Chorus
Verse x2
Chorus
Interlude x4
Chorus x2
End

Hope you like!!




Ваше мнение



Капча