#----------------------------------PLEASE NOTE---------------------------------#
#This file is the author's own work and represents their interpretation of the-#
#song. You may only use this file for private study, scholarship, or research.-#
#------------------------------------------------------------------------------#

Hoobastank - The Critic

Tuning: Drop D - D A D G

Intro:
G|----------------------------------------------------------------------|
D|----------------------------------------------------------------------|
A|----------------------------------------------------------------------|
D|--3--3--3~----3--2--0~----7-7-7-7-7-7-7-7-4-4-4-4-4-4-4-4-------------|

G|----------------------------------------------------------------------|
D|----------------------------------------------------------------------|
A|----------------------------------3-3-3-3-3-3-3-3---------------------|
D|--0-0-0-0-0-0-0-0-0-0-0-0-0-0-0-0-----------------5-5-5-5-5-5-5-5-0~--|

Verse:
G|----------------------------------------------------------------------|
D|----------------------------------------------------------------------|
A|----------------------------3--3--3-----------------------------------|
D|--0--0--0------0--0--0-------------------5--5--5----------------------|

Pre-Chorus:
G|----------------------------------------------------------------------|
D|----------------------------------------------------------------------|
A|----------------------------------------------------------------------|
D|--0-0-0-0-1-1-1-1-3-3-3-3-0-0-0-0-------------------------------------|

Chorus:
G|----------------------------------------------------------------------|
D|----------------------------------------------------------------------|
A|-----------11111111---------------------------------------------------|
D|--00000000----------55555555-7777-8888--------------------------------|

Bridge:
G|----------------------------------------------------------------------|
D|----------------------------------------------------------------------|
A|----------------------------------------------------------------------|
D|--111--111-11-33--111--111-11-33--0-0-0-0--0-0-0-0-111--111-11-33-----|

================================================================================




Ваше мнение



Капча