-------------------------------------------------------------------------------
RUNNING AWAY - Hoobastank
-------------------------------------------------------------------------------
Tabbed by:TheLawTB
Email:[email protected]
another tab by trey
Tuning:DADGBe
INTRO/VERSE
e|---------------------------------------------------------------------------|
B|---------------------------------------------------------------------------|
G|-5552-4444--5552-4444------------------5554--------------------------------|
D|-2222-2222--2222-2222--5557-9999--3335-3333--x2----------------------------|
A|-0000-0000--0000-0000--5555-5555--3333-3333--------------------------------|
E|-----------------------5555-5555--3333-3333--------------------------------|

e|----------------------------------3----------------------------------------|
B|----------------------------------3----------------------------------------|
G|-5552-4444--5552-4444-------------3--HOLD----------------------------------|
D|-2222-2222--2222-2222--5557-9999--3--HOLD----------------------------------|
A|-0000-0000--0000-0000--5555-5555--3----------------------------------------|
E|-----------------------5555-5555--3----------------------------------------|
(distorted)
e|---------------------------------------------------------------------------|
B|---------------------------------------------------------------------------|
G|-5552-4444--5552-4444------------------5554--------------------------------|
D|-2222-2222--2222-2222--5557-9999--3335-3333--x2----------------------------|
A|-0000-0000--0000-0000--5555-5555--3333-3333--------------------------------|
E|-----------------------5555-5555--3333-3333--------------------------------|
CHORUS
e|---------------------------------------------------------------------------|
B|---------------------------------------------------------------------------|
G|---------------------------------------------------------------------------|
D|-2--4--5-----5---5---5------2-----5-----5---5---5--------------------------|
A|-0--2--3--0--3---3---3---5--0--2--3--0--3---3---3---5----------------------|
E|----------0--3---3-------5-----0-----0--3---3-------5----------------------|
BREAK
e|--------0------------------------------------------------------------------|
B|------0---0----------------------------------------------------------------|
G|----5-------5--x4----------------------------------------------------------|
D|--7------------x4----------------------------------------------------------|
A|---------------------------------------------------------------------------|
E|---------------------------------------------------------------------------|
(distorted)
e|---------------------------------------------------------------------------|
B|---------------------------------------------------------------------------|
G|-5552-4444--5552-4444------------------5554--x4----------------------------|
D|-2222-2222--2222-2222--5557-9999--3335-3333--x4----------------------------|
A|-0000-0000--0000-0000--5555-5555--3333-3333--------------------------------|
E|-----------------------5555-5555--3333-3333--------------------------------|
after that go back to the chorus and do the break again then its pretty much repeat
===============================================================================




Ваше мнение



Капча