this is 100% perfect
tuning:dadgbe
intro:flanger??
----------------------------------------------------------
----------------------------------------------------------
----------------------------------------------------------
----12----10---------------------------------------------- 2x
----------------12----10----9-----------------------------
-xx----xx----xx----xx----xx-------------------------------
----------------------------------------------------------
----------------------------------------------------------
----------------------------------------------------------
--------------------------7----12----10----14----12----10-
----10----10----8----8------------------------------------
-xx----xx----xx---xx---xx---xx----xx----xx----xx----xx----
verse is the same.




Ваше мнение



Капча