Let You Know-Hoobastank
Hoobastank
my tab rip off-z:
http://www.angelfire.com/tx4/tabz/tabs.html
Open E:
E B E G# B E
Intro: w/ echo delay
e---------0---------------0---------------0---------------0-------
b-------2---2-----------2---2-----------2---2-----------2---2-----
g-----3-------3-------3-------3-------3-------3-------3-------3---
e---2-----------2---2-----------2---2-----------2---2-----------2-
b-0---------------0---------------0---------------0---------------
e-----------------------------------------------------------------
Verses: Fig. 1
e---------0---------------0-------------7--------0-------7--------
b-------5---5-----------5---5-------------8--------7-------8------
g-----7-------7-------7-------7------10-----10-------8-------10---
e-7-7-----------7---7-----------7---------0----------0-0--------0-
b-0---------------0----------------------------0------------------
e---------------------------------0-------------------------------
e------------0--------------------------0---0------------0--------
b------3--0-----0--3-----0----------5-----5-----0--5--------5-----
g----------------------1---1------3----------------------------3--
e-----------------------------------------------------------------
b-----------------------------------------------------------------
e-3-3-------------------------3/5---------------------------------
Chorus:
e-----------------------------------------------------------------
b-----------------------------------------------------------------
g-----------------------------------------------------------------
e-7-7-7-7-x-7-7-7-7-7-x-7-7-7-7-7-5-5-5-5-x-5-5-5-5-5-x-5-5-5-5-5-
b-7-7-7-7-x-7-7-7-7-7-x-7-7-7-7-7-5-5-5-5-x-5-5-5-5-5-x-5-5-5-5-5-
e-7-7-7-7-x-7-7-7-7-7-x-7-7-7-7-7-5-5-5-5-x-5-5-5-5-5-x-5-5-5-5-5-
e-----------------------------------------------------------------
b-----------------------------------------------------------------
g-----------------------------------------------------------------
e-4-4-4-4-x-4-4-4-4-4-x-4-4-4-4-4-10---7--10---7--10---7--10---10-
b-4-4-4-4-x-4-4-4-4-4-x-4-4-4-4-4-10---7--10---7--10---7--10---10-
e-4-4-4-4-x-4-4-4-4-4-x-4-4-4-4-4-10---7--10---7--10---7--10---10-
Bridge: w/ echo delay
e-----7---7------7--7------5---5------5--5------------------------
b-7----------7---------5----------5-------------------------------
g--------------------------------------------------5--------5-----
e-----------------------------------------------7--------7--------
b--------------------------------------------5--------5-----------
e-----------------------------------------------------------------
e-------------------
b-------------------
g-------6--------6--
e-5--7------5--7----
b-------------------
e-------------------
Bridge:
e---------------------------------5---5-5---5-5----5-5-5-5-5-5-5--
b---------------------------------5---5-5---5-5----5-5-5-5-5-5-5--
g---------------------------------5---5-5---5-5----5-5-5-5-5-5-5--
e-7---7-7---7-7----7-7-7-7-7-7-7--5---5-5---5-5----5-5-5-5-5-5-5--
b-7---7-7---7-7----7-7-7-7-7-7-7--5---5-5---5-5----5-5-5-5-5-5-5--
e-7---7-7---7-7----7-7-7-7-7-7-7--5---5-5---5-5----5-5-5-5-5-5-5--
e----------------------------------3---3--3-3--3-3-3-3-3-3-3-3-3--
b----------------------------------3---3--3-3--3-3-3-3-3-3-3-3-3--
g-3---7----7-7-7-7-7-7-7-7-7-7-7-7-3---3--3-3--3-3-3-3-3-3-3-3-3--
e-5---9----9-9-9-9-9-9-9-9-9-9-9-9-5---5--5-5--5-5-5-5-5-5-5-5-5--
b----------------------------------3---3--3-3--3-3-3-3-3-3-3-3-3--
e----------------------------------3---3--3-3--3-3-3-3-3-3-3-3-3--
Solo:
e-----------------------------------------------------------------
b-----------------------------------------------------------------
g-7-7-7-8-8-810101010101010101010-7-7-7-8-8-810101010101010101010-
e-x-x-x-x-x-x-x-x-x-x-x-x-x-x-x-x-x-x-x-x-x-x-x-x-x-x-x-x-x-x-x-x-
b-4-4-4-5-5-5-7-7-7-7-7-7-7-7-7-7-4-4-4-5-5-5-7-7-7-7-7-7-7-7-7-7-
e-----------------------------------------------------------------
e-----------------------------------------------------------------
b-----------------------------------------------------------------
g-7-7-7-8-8-810101010101010101010-6-6-6-8-8-810101010101010101010-
e-x-x-x-x-x-x-x-x-x-x-x-x-x-x-x-x-x-x-x-x-x-x-x-x-x-x-x-x-x-x-x-x-
b-4-4-4-5-5-5-7-7-7-7-7-7-7-7-7-7-3-3-3-5-5-5-7-7-7-7-7-7-7-7-7-7-
e-----------------------------------------------------------------
that’s all
trevor jones
[email protected]




Ваше мнение



Капча