-------------------------------------------------------------------------------
Let it Out - Hoobastank
-------------------------------------------------------------------------------
Tabbed by:Alex R
Tuning:Db Ab Db Gb Bb eb
Intro
eb|-------------------------------------|
Bb|-------------------------------------|
Gb|---------7-----------7-----------7---|
Db|-------5-----------5-----------5---5-| x3
Ab|---3/5---------3/5---------3/5-----3-|
Db|-0-----------0-----------0-----------|
eb|-------------------------------------|
Bb|-------------------------------------|
Gb|---------7-----------7---------------|
Db|-------5-----------5-----------5-5-5-|
Ab|---3/5---------3/5---------3/5---3-3-|
Db|-0-----------0-----------0-----------|
eb|-------------------------------|
Bb|-------------------------------|
Gb|-------------------------------|
Db|---7-------7-------7---------5-| x4
Ab|-0-5-5-0---5-5-0---5-5-0-3-0-3-|
Db|-0---5-0-----5-0-----5-0-3-0---|
Verse
eb|-------------------------------------|
Bb|-------------------------------------|
Gb|---------7-----------7-----------7---|
Db|-------5-----------5-----------5---5-| x3
Ab|---3/5---------3/5---------3/5-----3-|
Db|-0-----------0-----------0-----------|
2nd guitar riff
eb|------------------------------------------|
Bb|------------------------------------------|
Gb|------------------------------------------|
Db|------------------------------------------| x3
Ab|---------------------------------0-10---0-|
Db|---------------------------------0-10---0-|
eb|-------------------------------------|
Bb|-------------------------------------|
Gb|---------7-----------7---------------|
Db|-------5-----------5-----------5-5-5-|
Ab|---3/5---------3/5---------3/5---3-3-|
Db|-0-----------0-----------0-----------|
Chorus
eb|-------------------------------|-------------------------------|
Bb|-------------------------------|-------------------------------|
Gb|-------------------------------|-------------------------------|
Db|---7-------7-------7---------5-|-----------------------------5-|
Ab|-0-5-5-0---5-5-0---5-5-0-3-0-3-|-1-1-3-1---1-3-1---1-3-0-1-0-3-|
Db|-0---5-0-----5-0-----5-0-3-0---|-1-1-3-1---1-3-1---1-3-0-1-0---|
eb|-------------------------------|-------------------------------|
Bb|-------------------------------|-------------------------------|
Gb|-------------------------------|-------------------------------|
Db|---7-------7-------7---------5-|-3-------------5-------8-------|
Ab|-0-5-5-0---5-5-0---5-5-0-3-0-3-|-1-------------3-------6-------|
Db|-0---5-0-----5-0-----5-0-3-0---|-------------------------------|
Bridge
eb|-5555555555555555777777777777777788888888888888884444444444444444-|
Bb|-3333333333333333555555555555555566666666666666662222222222222222-|
Gb|------------------------------------------------------------------|
Db|------------------------------------------------------------------|
Ab|------------------------------------------------------------------|
Db|------------------------------------------------------------------|
eb|---------------------------------|-------------------------------|
Bb|---------------------------------|-------------------------------|
Gb|---------------------------------|-------------------------------|
Db|---------------------------------|---------------5---------------|
Ab|-0-------------2-----------------|-3-------------3---------------|
Db|-0-------------2-----------------|-3-----------------------------|
eb|---------------------------------|-------------------------------|
Bb|---------------------------------|-------------------------------|
Gb|---------------------------------|-------------------------------|
Db|---------------------------------|-------------------------------|
Ab|-0-------------2-----------------|-3-------------5---------------|
Db|-0-------------2-----------------|-3-------------5---------------|
| / slide up
| slide down
| h hammer-on
| p pull-off
| ~ vibrato
| + harmonic
| x Mute note
===============================================================================




Ваше мнение



Капча