Give It Back-Hoobastank
Hoobastank
my tab rip off-z:
http://www.angelfire.com/tx4/tabz/tabs.html
Open E:
E B E G# B E
Intro:
gtr. 1
e-----------------------------------------------------------------
b-----------------------------------------------------------------
g---8-6---5-6-----------------------8-6---5-6---------------------
e-------0-----0-4-5-0-5-7-0-3---3-0-----0-----0-4-5-0-5-7-0-4-5-7-
b-----------------------------------------------------------------
e-----------------------------------------------------------------
gtr. 2
e-----------------------------------------------------------------
b-----------------------------------------------------------------
g-----------------------------------------------------------------
e-----------------------------------------------------------------
b---5-3---2-3-----------------------5-3---2-3---------------------
e-------0-----0-4-5-0-5-7-0-3---3-0-----0-----0-4-5-0-5-7-0-4-5-7-
gtr. 1
e-----------------------------------------------------------------
b-----------------------------------------------------------------
g---8-6---5-6-----------------------------------------------------
e-------0-----0-4-5-0-5-7-0-3---3---------------------------------
b---------------------------------0-2-3-0-3-5-0-2-3-0-3-5----1--1-
e---------------------------------0-2-3-0-3-5-0-2-3-0-3-5----1--1-
gtr. 2
e-----------------------------------------------------------------
b-----------------------------------------------------------------
g-----------------------------------------------------------------
e-----------------------------------------------------------------
b---5-3---2-3---------------------0-2-3-0-3-5-0-2-3-0-3-5----1--1-
e-------0-----0-4-5-0-5-7-0-3---3-0-2-3-0-3-5-0-2-3-0-3-5----1--1-
gtr. 1&2
e------------------------------------
b------------------------------------
g------------------------------------
e------------------------------------
b-0-12-10-0-9-10-0-4-5-0-5-7-0-3---3-
e-0-12-10-0-9-10-0-4-5-0-5-7-0-3---3-
e------------------------------------
b------------------------------------
g------------------------------------
e------------------------------------
b-0-12-10-0-9-10-0-4-5-0-5-7-0-4-5-7-
e-0-12-10-0-9-10-0-4-5-0-5-7-0-4-5-7-
e------------------------------------
b------------------------------------
g------------------------------------
e------------------------------------
b-0-12-10-0-9-10-0-4-5-0-5-7-0-3---3-
e-0-12-10-0-9-10-0-4-5-0-5-7-0-3---3-
e---------------------------------
b---------------------------------
g---------------------------------
e---------------------------------
b-0-2-3-0-3-5-0-2-3-0-3-5----1--1-
e-0-2-3-0-3-5-0-2-3-0-3-5----1--1-
Verses:
gtr. 1
e-----------------------------------------------------------------
b-----------------------------------------------------------------
g---8-6-8-5-6-----------------------8-6-8-5-6---------------------
e-0---------------------0-3-5-----0-----------0-4-5-0-5-7-0-4-5-7-
b-----------------------------------------------------------------
e-----------------------------------------------------------------
gtr. 2
e-----------------------------------------------------------------
b-----------------------------------------------------------------
g-----------------------------------------------------------------
e-----------------------------------------------------------------
b---5-3-5-2-3-----------------------5-3-5-2-3---------------------
e-0---------------------0-3-5-----0-----------0-4-5-0-5-7-0-4-5-7-
gtr. 1
e-----------------------------------------------------------------
b-----------------------------------------------------------------
g---8-6-8-5-6-----------------------------------------------------
e-0---------------------0-3-5-----0-2-3-0-3-5-0-2-3-0-3-5-0-2-3-5-
b-----------------------------------------------------------------
e-----------------------------------------------------------------
gtr. 2
e-----------------------------------------------------------------
b-----------------------------------------------------------------
g-----------------------------------------------------------------
e-----------------------------------------------------------------
b---5-3-5-2-3-----------------------------------------------------
e-0---------------------0-3-5-----0-2-3-0-3-5-0-2-3-0-3-5-0-2-3-5-
gtr. 1
e-----------------------------------------------------------------
b-----------------------------------------------------------------
g---8-6-8-5-6-----------------------8-6-8-5-6---------------------
e-0---------------------0-3-5-----0-----------0-4-5-0-5-7-0-4-5-7-
b-----------------------------------------------------------------
e-----------------------------------------------------------------
gtr. 2
e-----------------------------------------------------------------
b-----------------------------------------------------------------
g-----------------------------------------------------------------
e-----------------------------------------------------------------
b---5-3-5-2-3-----------------------5-3-5-2-3---------------------
e-0---------------------0-3-5-----0-----------0-4-5-0-5-7-0-4-5-7-
gtr. 1
e-----------------------------------------------------------------
b-----------------------------------------------------------------
g---8-6-8-5-6-----------------------------------------------------
e-0---------------------0-3-5-----0-2-3-0-3-5-0-2-3-0-3-5---------
b------------------------------------------------------------3----
e------------------------------------------------------------3----
gtr. 2
e-----------------------------------------------------------------
b-----------------------------------------------------------------
g-----------------------------------------------------------------
e-----------------------------------------------------------------
b---5-3-5-2-3------------------------------------------------3----
e-0---------------------0-3-5-----0-2-3-0-3-5-0-2-3-0-3-5----3----
Chorus:
e--------------------------------------
b--------------------------------------
g--------------------------------------
e--------------------------------------
b-0-0-0-12-12-12-8-8-8-10-10-10-0-0--1-
e-0-0-0-12-12-12-8-8-8-10-10-10-0-0--1-
e-----------------------------------
b-----------------------------------
g-----------------------------------
e-------------------5-5-5-5-5-5-5---
b-0-0-0-8-8-8-3-3-3-3-3-3-3-3-3-3-1-
e-0-0-0-8-8-8-3-3-3-3-3-3-3-3-3-3-1-
then, on 2nd chorus
e--------------------------------------
b--------------------------------------
g--------------------------------------
e--------------------------------------
b-0-0-0-12-12-12-8-8-8-10-10-10-2-2-1--
e-0-0-0-12-12-12-8-8-8-10-10-10-2-2-1--
let ring
e-----------------------------------------------------------------
b-----------------------------------------------------------------
g-----------------------------------------------------------------
e-----------------------------------------------------------------
b-1---------------------------------------------------------------
e-1---------------------------------------------------------------
e-----------------------------------------------------------------
b-----------------------------------------------------------------
g-----------------------------------------------------------------
e-----------------------------------------------------------------
b-1--1-0-1--0h1-1-0-1--0h1-1-0--1--0h1-1-0-1--0h1-1-0--1-3--------
e-1--1-0-1--0h1-1-0-1--0h1-1-0--1--0h1-1-0-1--0h1-1-0--1-3--------
Interlude:
gtr. 1
e-----------------------------------------------------------------
b-----------------------------------------------------------------
g---8-6---5-6-----------------------8-6---5-6---------------------
e-------0-----0-4-5-0-5-7-0-3---3-0-----0-----0-4-5-0-5-7-0-4-5-7-
b-----------------------------------------------------------------
e-----------------------------------------------------------------
gtr. 2
e-----------------------------------------------------------------
b-----------------------------------------------------------------
g-----------------------------------------------------------------
e-----------------------------------------------------------------
b---5-3---2-3-----------------------5-3---2-3---------------------
e-------0-----0-4-5-0-5-7-0-3---3-0-----0-----0-4-5-0-5-7-0-4-5-7-
gtr. 1
e-----------------------------------------------------------------
b-----------------------------------------------------------------
g---8-6---5-6-----------------------------------------------------
e-------0-----0-4-5-0-5-7-0-3---3---------------------------------
b---------------------------------0-2-3-0-3-5-0-2-3-0-3-5----1--1-
e---------------------------------0-2-3-0-3-5-0-2-3-0-3-5----1--1-
gtr. 2
e-----------------------------------------------------------------
b-----------------------------------------------------------------
g-----------------------------------------------------------------
e-----------------------------------------------------------------
b---5-3---2-3---------------------0-2-3-0-3-5-0-2-3-0-3-5----1--1-
e-------0-----0-4-5-0-5-7-0-3---3-0-2-3-0-3-5-0-2-3-0-3-5----1--1-
Outro:
e-----------------------------------------------------------------
b-----------------------------------------------------------------
g-----------------------------------------------------------------
e-----------------------------------------------------------------
b-0h1-1-0--1---0h1--1p0--1--0h1-1p0--1--0h1-1p0-1--0h1-1p0-1-3----
e-0h1-1-0--1---0h1--1p0--1--0h1-1p0--1--0h1-1p0-1--0h1-1p0-1-3----
that’s all
would it just be easier to use a harmonizer with this song ?
trevor jones
[email protected]




Ваше мнение



Капча