intro and verse are perfect but not sure on the chorus
tuning:dadgbe
intro and verse
--------------------------------------------------------------
--------------------------------------------------------------
--------------------------------------------------------------
----4---4h6----6---6h7-----7---7/6----2---2h4-----------------
--------------------------------------------------------------
-44---4-----44---4------77---7-----22---2---------------------
** * ** * ** * ** *
chorus
------------------------------
------------------------------
------------------------------
-4-7-2--------0-7-2-----------
-4-7-2--------0-7-2-----------
-4-7-2--------0-7-2-----------




Ваше мнение



Капча