Nice, live song from hoobastank here. It said acoustic when I downloaded it,
but it can really be played on either, doesn't matter. I haven't put strumming
patterns on this tab, so you're going to have to work it out, but in the chorus
I have put double the space for one of the chords as it's played for ttwice the
length. Also in the chorus, the first time it's played is the only time the
first bar is used, every other time start from the chord starting with a route 9. enjoy
Drop D tuning
Intro
|-------2-------2----------------------
|--------------------------3---------0-
|-----4-------3----------2---------0---
|---4-------4----------0---------0-----
|-2-------2-------5/-------------------
|--------------------5-------0-5-------
Chorus (bar breaks only used second time through chords)
|-----------|-------------------------|------------|---
|-----------|-------------------------|------------|---
|-7-----9---|--11-----9-----7---------|-10----5----|-2-
|-5-----7---|--9------7-----5---------|-8-----3----|-2-
|-5-----7---|--9------7-----5---------|-8-----3----|-0-
|-5-----7---|--9------7-----5---------|-8-----3----|-0-
^repeat from here and ... ^ repeat these chords
Intro riff
Verse
|---------------------------------------
|-----------------7---------------------
|-7---------------7---------------------
|-7---4---5---4---7---4---5---8---5---8-
|-5---4---5---4---5---4---5---8---5---8-
|-5---4---5---4---5---4---5---8---5---8-
Chorus (starting from the chord with route on 9)
Bridge
|------------------------------------------
|------------------------------------------
|------------------------------------------
|4---5---4---5---0---4---5---0---4---5---7-
|4---5---4---5---0---4---5---0---4---5---7-
|4---5---4---5---0---4---5---0---4---5---7-
Chorus
Outro (just one strum each)
|---------
|---------
|11--9--7-
|-x--x--x-
|-9--7--5-
|---------
any questions? [email protected]




Ваше мнение



Капча