Intro
E-----------------------------------------------------
B-----------------------------------------------------
G-------------------------------------7---9-----------
D-----4---2-------4---2-------4---2---7---9-----------
A-----4---2-------4---2-------4---2---5---7-----------
E-0h2-2---0---0h2-2---0---0h2-2---0-------------------
Guitar 2
E-----------------------------------------------------
B-----------------------------------------------------
G-----------------------------------------------------
D-11-12----------11-12----------11-12-----------------
A-------12-11----------12-11----------12-11-----------
E-----------------------------------------------------
Verse
E-----------------------------------------------------
B-----------------------------------------------------
G-------------------------7---9---7---9---------------
D-----4---2-------4---2---7---9---7---9---------------2x
A-----4---2-------4---2---5---7---5---7---------------
E-0h2-2---0---0h2-2---0-------------------------------
Chorus
E-----------------------------------------------------
B-----------------------------------------------------
G---------------------7---9---7---9-------------------
D-4---7-2---4---7-2---7---9---7---9-------------------2x
A-4---7-2---4---7-2---5---7---5---7-------------------
E-2---5-0---2---5-0-----------------------------------
Verse
E-----------------------------------------------------
B-----------------------------------------------------
G-------------------------7---9---7---9---------------
D-----4---2-------4---2---7---9---7---9---------------2x
A-----4---2-------4---2---5---7---5---7---------------
E-0h2-2---0---0h2-2---0-------------------------------
Chorus
E-----------------------------------------------------
B-----------------------------------------------------
G---------------------7---9---7---9-------------------
D-4---7-2---4---7-2---7---9---7---9-------------------2x
A-4---7-2---4---7-2---5---7---5---7-------------------
E-2---5-0---2---5-0-----------------------------------
Bridge
E-----------------------------------------------------
B-----------------------------------------------------
G-6---7---6---7---9---6---7---9-------7---9---6-------
D-6---7---6---7---9---6---7---9---7---7---9---6-------
A-4---5---4---5---7---4---5---7---7---5---7---4-------
E---------------------------------5-------------------
Intro
E-----------------------------------------------------
B-----------------------------------------------------
G-------------------------------------7---9-----------
D-----4---2-------4---2-------4---2---7---9-----------
A-----4---2-------4---2-------4---2---5---7-----------
E-0h2-2---0---0h2-2---0---0h2-2---0-------------------
E-----------------------------------------------------
B-----------------------------------------------------
G-----------------------------------------------------
D-11-12----------11-12----------11-12-----------------
A-------12-11----------12-11----------12-11-----------
E-----------------------------------------------------
Chorus
E-----------------------------------------------------
B-----------------------------------------------------
G---------------------7---9---7---9-------------------
D-4---7-2---4---7-2---7---9---7---9-------------------2x
A-4---7-2---4---7-2---5---7---5---7-------------------
E-2---5-0---2---5-0-----------------------------------
Outro
E-----------------------------------------------------
B-----------------------------------------------------
G-----------------------------------------------------
D-4---7-2---4---7-2---4---7-2---4---7-----------------
A-4---7-2---4---7-2---4---7-2---4---7-----------------
E-2---5-0---2---5-0---2---5-0---2---5-----------------




Ваше мнение



Капча