Better-Hoobastank
Hoobastank
my tab rip off-z:
http://www.angelfire.com/tx4/tabz/tabs.html
Drop D:
D A D G B E
< > = artificial harmonics
Intro:
x2
e------------------------------------------------
b------------------------------------------------
g------------------------------------------------
d-0---2----4----10---10---0---2----4----10---10--
a-0---2----4----10---10---0---2----4----10---10--
d-0---2----4----10---10---0---2----4----10---10--
Verses: w/ phaser
e-----------------------------------------------------------------
b-----------------------------------------------------------------
g-----------------------------------------------------------------
d-0-0-2-4-4-----0-0-2-2-4-4-------0-0-2-4-4-----0-0-2-2-4-4-------
a-----------3-3-------------3-3-------------3-3-------------3-3-0-
d-------------------------------0---------------------------------
e-----------------------------------------------------------------
b-----------------------------------------------------------------
g-------------------------------------------------------------
d-0-0-2-2-4-4-----0-0-2-2-4-4-------0-0-2-4-4-----0-0-2-2-4-4-----
a-------------3-3-------------3-3-0-----------3-3-----------------
d-----------------------------------------------------------------
e-----------------------------------------------------------------
b-----------------------------------------------------------------
g-----------------------------------------------------------------
d-----------------------------------------------------------------
a-0-0-2-4-4-3-3-3-0-2-4-4-4-3-3-3-0-2-4-4-4-3-3-3-0-2-4-4-4-3-3-3-
d-0-0-2-4-4-------0-2-4-4-4-------0-2-4-4-4-------0-2-4-4-4-------
e-----------------------------------------------------------------
b-----------------------------------------------------------------
g-----------------------------------------------------------------
d---------------------------------------------------------5-5-5-5-
a-0-0-2-4-4-3-3-3-0-2-4-4-4-3-3-3-0-0-2-4-4-3-3-0-0-2-4-4-3-3-3-3-
d-0-0-2-4-4-------0-2-4-4-4-------0-0-2-4-4-------0-2-4-4---------
e-----------------------------------------------------------------
b-----------------------------------------------------------------
g-----------------------------------------------------------------
d-10-10-10-10-----------10-10-10---10-10-10-10------5-5-5-5-5-5---
a-10-10-10-10-----------10-10-10---10-10-10-10------5-5-5-5-5-5---
d-10-10-10-10-----------10-10-10---10-10-10-10------5-5-5-5-5-5-0-
Chorus:
e-------------------------------------------------
b-------------------------------------------------
g-------------------------------------------------
d-7---7-7---7---7-7--7-----5---5-5---5---5-5-5-5--
a-5---5-5---4---4-4--4--0--3---3-3---2---2-2-2-2--
d-------------------------------------------------
e--------------------------1---1-1---1--1-1--1-1--
b--------------------------1---1-1---1--1-1--1-1--
g--------------------------3---3-3---2--2-3--3-3--
d-7---7-7---7---7-7--7-----3---3-3---3--3-3--3-3--
a-5---5-5---4---4-4--4--0--1---1-1---0--0-1--1-1--
d-------------------------------------------------
e-------------------------------------------------
b-------------------------------------------------
g-------------------------------------------------
d-7---7-7---7---7-7--7-----5---5-5---5---5-5-5-5--
a-5---5-5---4---4-4--4--0--3---3-3---2---2-2-2-2--
d-------------------------------------------------
e-1--1--1--1--1--1--1--1--3--3--3--3--3-3-3-3-3-3-3-3-
b-1--1--1--1--1--1--1--1--3--3--3--3--3-3-3-3-3-3-3-3-
g-3--3--3--3--3--3--3--3--5--5--5--5--5-5-5-5-5-5-5-5-
d-3--3--3--3--3--3--3--3--5--5--5--5--5-5-5-5-5-5-5-5-
a-1--1--1--1--1--1--1--1--3--3--3--3--3-3-3-3-3-3-3-3-
d-----------------------------------------------------
Interlude:
x2
e--------------------------------------------------------
b--------------------------------------------------------
g--------------------------------------------------------
d-0---2----4----10---10--10---0---2----4----10---10--10--
a-0---2----4----10---10--10---0---2----4----10---10--10--
d-0---2----4----10---10--10---0---2----4----10---10--10--
after 2nd chorus
e-1--1--1--1--1--1--1--1--3--3--3--3--3-3-3-3-3-3-3-3-
b-1--1--1--1--1--1--1--1--3--3--3--3--3-3-3-3-3-3-3-3-
g-3--3--3--3--3--3--3--3--5--5--5--5--5-5-5-5-5-5-5-5-
d-3--3--3--3--3--3--3--3--5--5--5--5--5-5-5-5-5-5-5-5-
a-1--1--1--1--1--1--1--1--3--3--3--3--3-3-3-3-3-3-3-3-
d-----------------------------------------------------
gtr. 2
e-------------------------8-----------------8---8---8-
b-----------------------------------------------------
g-----------------------------------------------------
d-----------------------------------------------------
a-----------------------------------------------------
d-----------------------------------------------------
D5 let ring
mini solo:
e--------------------------------------10--10--10--10-
b-7----------8----------------------------------------
g---------------------5------/9---7-------------------
d-----------------------------------------------------
a-----------------------------------------------------
d-----------------------------------------------------
Pre Chorus:
e-----------------------------------------------------
b-----------------------------------------------------
g-5-5-5-5---------5-5-5-------5-5-5-5---------5-5-5---
d-5-5-5-5---------5-5-5-------5-5-5-5---------5-5-5---
a-3-3-3-3---------3-3-3-------3-3-3-3---------3-3-3---
d-----------------------------------------------------
e-----------------------------------------------------
b-----------------------------------------------------
g-5-5-5-5---------5-5-5-------5-5-5-5-----------------
d-5-5-5-5---------5-5-5-------5-5-5-5---5-5-5-5-5-5-5-
a-3-3-3-3---------3-3-3-------3-3-3-3---5-5-5-5-5-5-5-
d---------------------------------------5-5-5-5-5-5-5-
that’s all
trevor jones
[email protected]




Ваше мнение



Капча