E------------------------------------------------------------------------------
B------------------------------------------------------------------------------
G------------------------------------------------------------------------------
D------------------------------------------------------------------------------
A---0--2--5--5------0--2--5--5-------0--2--5--0--2--5---2----------------------
E------------------------------------------------------------------------------
EN ESTA PARTE ENTRA LA BATERIA Y DESPUES UN ACORDE DE RE (D)
E------------------------------------------------------------------------------
B------------------------------------------------------------------------------
G------------------------------------------------------------------------------
D--------4--4--2--0------------------------------------------------------------
A--0--2--------------------4-4-------------------------------------------------
E--------------------2--2-------2----------------------------------------------
E------------------------------------------------------------------------------
B------------------------------------------------------------------------------
G------------------------------------------------------------------------------
D------------------------------------------------------------------------------
A-----4--2--0--------0--2--4--0------------------------------------------------
E--2-----------3--3------------------------------------------------------------
E------------------------------------------------------------------------------
B------------------------------------------------------------------------------
G------------------------------------------------------------------------------
D-----------0--0--0--0--2--4---------------------------------------------------
A--0--2--4--------------------0--0--0--0--4--2--0------------------------------
E------------------------------------------------------------------------------
D Bm F#m Fm-F#m
NO, NO ME LLORES
G A D A
NO ME VAYAS A HACER LLORAR A MI
D Bm F#m Fm-F#m
DAME, DAME TU MANO
G A D A
INTENTALO MI NIСA, QUIERO VERTE REIR
D Bm
ABRAZAME FUERTE
D Bm
VEN CORRIENDO A MI,
D
TE QUIERO, TE QUIERO, TE QUIERO
G Gm D Bm-D-A
Y NO HAGO OTRA COSA QUE PENSAR EN TI.
(A:-0--2--5--0--2--5---2-)
D Bm F#m Fm-F#m
TU, YA ESTAS DORMIDA
G A D-A
Y YO TE ABRAZO Y SIENTO QUE RESPIRAS
D Bm F#m Fm-F#M
SUEСO, CON TU SONRISA
G A D A
TE BESO MUY DESPACIO EN TUS MEJILLAS.
D Bm D Bm
NESECITO VERTE, DONDE QUIERA QUE ESTES
D
TE QUIERO, TE QUIERO, TE QUIERO
G Gm
Y NO HAGO OTRA COSA QUE PENSAR EN TI
A D Bm
SOLO VIVO Y RESPIRO PARA TI,
G A D-Bm-G-A G Gm D-Bm-G-A
TE QUIERO, TE QUIERO TE QUIERO, TE QUIERO.

ESTOS ES EL SOLO
E------------------------------------------------------------------------------
B--10*12---10*12-12-10---------------------------------------------------------
G----------------------------11-12-11--9/7----7-9/11-11-11-9*11----------------
D----------------------------------------------9-------------------------------
A------------------------------------------------------------------------------
E------------------------------------------------------------------------------
E------------------------------------------------------------------------------
B---------------------------------------------------------9/12-12-12-12-10-----
G-9-9-9*7----------------------------------7-9~9~-7----------------------------
D-----------9-7-9-7-9------------------7-9-------------------------------------
A-----------------------9-10-9-7---7-9-----------------------------------------
E----------------------------------10------------------------------------------
E--7/10-12-10-10/17-15-14-17-17-17-17/19-17-17/19--19/17-----------------------
B------------------------------------------------------------------------------
G------------------------------------------------------------------------------
D------------------------------------------------------------------------------
A------------------------------------------------------------------------------
E------------------------------------------------------------------------------
E----15-15-15*14-------------10---------12-------10-12/14-14-14--12------------
B--------------------15--10*12----10*12----10*12-------------------------------
G------------------------------------------------------------------------------
D------------------------------------------------------------------------------
A------------------------------------------------------------------------------
E------------------------------------------------------------------------------
D Bm D Bm
ABRAZAME FUERTE, VEN CORRIENDO A MI
D G
DEJAME QUE TE DIGA OTRA VEZ QUE TE QUIERO
Gm D Bm-G-A
TE QUIERO, TE QUIERO
D Bm-G-A D
TE QUIERO, TE QUIERO
Bm G D
TE QUIERO, TE QUIERO

NOTA:D-Bm-F#m-Fm-F#m-G-A-D-A D-Bm-F#m-Fm-F#m-G-A-D-A (ESTOS ACORDES SON
TOCADOS POR UNA SEGUNDA GUITARRA DURANTE EL SOLO)




Ваше мнение



Капча