----------------------------------------------------------------------
Holly McNarland – Elmo
----------------------------------------------------------------------

Transcribed by Ben Godby
[email protected]

Standard Tuning – EADGBe

Legend
~ = vibrato

Intro/Main Riff
e|---------------------------------------|
B|-10~~~~~~~-12~~~~~~~-------------------|
G|---------------------10~~~~~~~---------|
D|---------------------------------------|
A|---------------------------------------|
E|---------------------------------------|

Pre-Chorus Fill
e|---------------------------------------|
B|---------------------------------------|
G|-9~~~~~~~------------------------------|
D|---------------------------------------|
A|---------------------------------------|
E|----------(gradual-pick-slide)---------|

Chorus
D Bm F#m
e|-5---------2---------2---------2-------|
B|-7---------3---------2---------2-------|
G|-7---------4---------2---------2-------|
D|-7---------4---------4---------4-------|
A|-5---------2---------4---------4-------|
E|---------------------2---------2-------|

Dm Bm F#m
e|-5---------2---------2---------2-------|
B|-6---------3---------2---------2-------|
G|-7---------4---------2---------2-------|
D|-7---------4---------4---------4-------|
A|-5---------2---------4---------4-------|
E|---------------------2---------2-------|

Chorus Synthesizer Fill
e|-0---------2-0-------------------------|
B|---2-----------2-----------------------|
G|-----2-----------2---------------------|
D|-------4-----------4-------------------|
A|---------------------------------------|
E|---------------------------------------|

Bridge
D Bm F#m
e|---------------------------------------|
B|-------7---------3---------------------|
G|-----7---------4-----------2---------2-|
D|---7---------4-----------4---------4---|
A|-5---------2-----------4---------4-----|
E|---------------------2---------2-------|




Ваше мнение



Капча