Hole - Violet
This is a really easy song but sound rad. Courtney rocks
Riff A
Clean
E-------------------------------------------------------------------------
B-------------------------------------------------------------------------
B----9---9---9-9-9-9/5--5---5---5-5-5-5-----------------------------------
D----9---9---9-9-9-9/5--5---5---5-5-5-5----5------------------------------
A----7---7---7-7-7-7/3--3---3---3-3-3-3----5------------------------------
E----0---0---0-0-0-0-0--0---0---0-0-0-0----3------------------------------
And the sky was made of amethyst
And all the stars were just like little fish
You should learn when to go
You should learn how to say no
Riff B
w/distortion
E-------------------------------------------------------------------------
B-------------------------------------------------------------------------
G-------------------------------------------------------------------------
D-----2---2---2-2-2-2-----3---3---3-3-3-3-----5---------------------------
A-----2---2---2-2-2-2-----3---3---3-3-3-3-----5---------------------------
E-----0---0---0-0-0-0-----1---1---1-1-1-1-----3---------------------------
Might last a day, yeah
Minus forever
Might last a day, yeah
Riff C
Clean
E-----------------------------------------------------------------------
B-----------------------------------------------------------------------
G-----9---9---9-9-9-9----10--10---10-10-10-10----12---------------------
D-----9---9---9-9-9-9----10--10---10-10-10-10----12---------------------
A-----7---7---7-7-7-7-----8---8----8--8--8--8----10---------------------
E-----------------------------------------------------------------------
Minus forever
Riff D
Clean
E-------------------------------------------------------------------------
B-------------------------------------------------------------------------
G-----9---9---9-9-9-9----5---5--5-5-5-5--7--7--7-7-7-7--------------------
D-----9---9---9-9-9-9----5---5--5-5-5-5--7--7--7-7-7-7---7-7--7-7-7-7-----
A-----7---7---7-7-7-7----3---3--3-3-3-3--5--5--5-5-5-5---7-7--7-7-7-7-----
E-----0---0---0-0-0-0----0---0--0-0-0-0--0--0--0-0-0-0---5-5--5-5-5-5-----
Riff D
Well they get what they want, and they never want it again
Riff D
Well they get what they want, and they never want it again
Riff D (w/distortion)
Go on, take everything, take everything, I want you to
Riff D
Go on, take everything, take everything, I want you to

Riff A
And the sky was all violet
Riff A
I want to give my violet more violence
Riff A
And I'm the one with no soul
Riff A
One above and one below

Riff B w/distortion
Might last a day, yeah

Riff C
Mine is forever
Bridge (2.42) Repeat
E----------------------------------------------------------------------
B----------------------------------------------------------------------
G----5-5--5-5-5-5--8-8--5-5-5-5--10-10-10-10-10-10--8-8--5-5-5-5-------
D----6-6--6-6-6-6--9-9--6-6-6-6--11-11-11-11-11-11--9-9--6-6-6-6-------
A----6-6--6-6-6-6--9-9--6-6-6-6--11-11-11-11-11-11--9-9--6-6-6-6-------
E----------------------------------------------------------------------





Ваше мнение



Капча