TURPENTINE HOLE
bass tab transcribed by [email protected]
when i come down can't look you in the eye..
G -----------------------------|
D -----------------------------|
A ----3-5-3-5-3-5-3-5-3-5-3-5-3|
E 5-3--------------------------|
you gedda watch..
G --------------------------------------|
D --------------------------------------|
A ---------------------------2-2-2-3-3-3|
E 0-0-0-0-0-0-0-0-0-0-0-0-0-0-----------|
i see you standing..
G 2-2-2---------|
D -----3-3-3-0--|
A --------------|
E --------------|
who really knows where the ruby rides..
G -----------------------------|
D -----------------------------|
A ----3-5-3-5-3-5-3-5-3-5-3-5-3|
E 5-3--------------------------|
G --------------------------------------|
D --------------------------------------|
A --------------------------------------|
E 0-0-0-0-0-0-0-0-0-0-0-0-0-0-2-2-2-3-3-|
put your head up over your legs...
G ---------------------|
D --------0-0----------|
A 2-2-3-3--------------|
E ---------------------|
* note: dont be too hard on me damnit. i noticed the other tab
was way off too, so dont get mad at me either. heart geniefur.





Ваше мнение



Капча