Date: Wed, 01 Apr 1998 19:10:46 PST
From: D'ArcyZero the Goddess of Wine
Subject: TAB: Teenage Whore by Hole

Teenage Whore, from Pretty on the Inside
tabbed by D*Arcy ([email protected])
*no timing shown, listen to the song*
Verse:play 4x
e------------------------------
B------------------------------
G------------------------------
D-2--2--2--2--5--5--3--2--3--2-
A-2--2--2--2--5--5--3--2--3--2-
E-0--0--0--0--3--3--1--0--1--0-

Riff 1: 2x * (not sure) *
e------------------------------------------------
B------------------------------------------------
G------------------------------------------------
D-0-0-7-0-7-0----7---7----7--7-----2-2-2-2-2-2-2-
A--------------0---0----8---8---8--2-2-2-2-2-2-2-
E----------------------------------0-0-0-0-0-0-0-

play the verse 4x
play riff 1 2x

Riff 2: 4x
e------------------------------------------
B------------------------------------------
G-7--7-7-7-7-------------------------------
D-7--7-7-7-7--8---8-8-8-8--6-6-6-6-6-6-6-6-
A-5--5-5-5-5--8---8-8-8-8--6-6-6-6-6-6-6-6-
E-------------6---6-6-6-6--4-4-4-4-4-4-4-4-

then play the verse 4x and then riff 1 2x

then play and E5 chord until the end





Ваше мнение



Капча