Date: Sun, 28 Jul 1996 23:09:43 -0400
From: "W.B. Chapman"
Subject: TAB: She Walks On Me Hole
She Walks On Me - Hole
-*-*-*-*-*-*-*-*-*-*-*
Live Through This - Track 9
Intro Part:
===========
E|---------------------------------|
B|---------------------------------|
G|------------5(-5-5-5-------------| play that 3x then
D|--3h5-5-5-5----------------------|
A|---------------------------------|
E|---------------------------------|
(i think i'm off a bit on this)
E|-------------------------------------------------------------------------------|
B|-------------------------------------------------------------------------------|
G|--5-5-5-5-6-6-6-6-7-7-7-7-8-8-8-8-9-9-9-9-10-10-10-10-11-11-11-11-12-12-12-12--|
D|-------------------------------------------------------------------------------|
A|-------------------------------------------------------------------------------|
E|-------------------------------------------------------------------------------|
Main Part:
==========
A5 E5 Eb5 B5
Other Part:
===========
E|-------------------------------|
B|-------------------------------|
G|-------------------------------|
D|--7~~~~~--10~~~~~--------------|
A|--7-------10-------------------|
E|--5-------8--------------------|
A5 C5
if its wrong, i'm sorry to have mislead you. but most of it sounds accurate
except for the part mentioned above. anyways, hoped it helped a little..bye.





Ваше мнение



Капча