Hole -
She Walks On Me

From The Album Live Through This

Courtney Love - Guitar, Vocals
Eric Erlandson - Guitars
Kirsten Pfaff - Bass guitar
Patty Schemel - Drums

Tabbed By : Denise

For the exact rythyms and timings listen to the song
Intro

G-------------------------------------------------------
D-------------------------------------------------------
A--------5----5--------5---5-------5---5-------------
E--2-2/ ---5---2-2/---5---2-2/--5----5-5-5-5-5

Chorus (repeat 18 times)

G--------------------------------------
D--------------------------------------
A-------7-7-7-7-6-6-6-6-----------
E--5-5-----------------------7-7-7-7

Verse (repeat 4 times)

G--------------------------------------------
D---------------------------------------------
A--------------------------3-3-3-3-7-7-7-7-
E--5-5-5-5-5-5-5-5-5-------------------

Chorus (repeat 9 times)

Do not play along the first time!
G--------------------------------------
D---------------------------------------
A-------7-7-7-7-6-6-6-6-----------
E--5-5-----------------------7-7-7-7

Verse (repeat 4 times)

G-------------------------------------------------
D-------------------------------------------------
A---------------------------3-3-3-3-7-7-7-7-
E--5-5-5-5-5-5-5-5-5------------------------

Bridge (same as intro)

Chorus (repeat 10 times)
G---------------------------------------
D---------------------------------------
A-------7-7-7-7-6-6-6-6-----------
E--5-5----------------------7-7-7-7-

End with

E--5-5-5-5-5--------------------------

1999 Denise





Ваше мнение



Капча