Artist: Hole
Song: Reasons to be beautiful
Album: Celebrity Skin
Tabbed by: Alexandre Lima ([email protected])
Based on the work made by Sugarless Kisses

Intro:
||2x ||
G:||-----------------|-----------------||
D:||*----------------|----------------*||
A:||*------------777-|----------------*||
E:||--3--3--3-3-3----|-7--7--7-7-7777--||

Verse:
||4x ||
G:||-----------------|-----------------||
D:||*----------------|----------------*||
A:||*------------777-|----------------*||
E:||--3--3--3-3-3----|-7--7--7-7-7777--||

Pre-chorus:
G:|-m-|-----------------|
D:|-u-|-----------------|
A:|-t-|-----------------|
E:|-e-|-7-7-7-7-7-7-7-7-|

Chorus:
G:|-----------------|-----------------|-----------------|-----------------|
D:|-----------------|-----------------|-----------------|-----------------|
A:|-----------------|-4-4-4-4---------|-----------------|-----------------|
E:|-1-1-1-1-1-1-1-1-|---------4-4-4-4-|-6-6-6-6-6-6-6-6-|-1-1-1-1-1-1-1-1-|

G:|-----------------|-----------------|-----------------|-----------------|
D:|-----------------|-----------------|-----------------|-----------------|
A:|-4-4-4-4---------|-----------------|-4-4-4-4---------|-----------------|
E:|---------4-4-4-4-|-6-6-6-6-1-1-1-1-|---------4-4-4-4-|-6-6-6-6-6-6-6-6-|

Verse 2:
[REPEAT VERSE]
Note: The first time you play the two first bars, there'll be no lyrics.
Didn't get it? Hear the song. This note'll be useless.
[REPEAT PRE-CHORUS]

Chorus:
[REPEAT CHORUS]

Bridge:
||2x
G:||------------------|-----------------|
D:||*-----------------|-----------------|
A:||*-3-3-3-3---------|-----------------|
E:||----------4-4-4-4-|-6-6-6-6-1-1-1-1-|

||
G:|-----------------|------------------||
D:|-----------------|-----------------*||
A:|-3-3-3-3---------|-----------------*||
E:|---------4-4-4-4-|-6-6-6-6-4-4-6-6--||

Verse 3:
[REPEAT VERSE]

Chorus 2:
G:|-----------------|-----------------|
D:|-----------------|-----------------|
A:|-----------------|-----------------|
E:|-7-7-7-7-7-7-7-7-|-1-1-1-1-1-1-1-1-|

G:|-----------------|-----------------|-----------------|-----------------|
D:|-----------------|-----------------|-----------------|-----------------|
A:|-4-4-4-4---------|-----------------|-4-4-4-4---------|-----------------|
E:|---------4-4-4-4-|-6-6-6-6-1-1-1-1-|---------4-4-4-4-|-6-6-6-6-6-6-6-6-|

G:|-----------------|
D:|-----------------|
A:|-----------------|
E:|-1-1-1-1-1-1-1-1-|

G:|-----------------|-----------------|-----------------|-----------------|
D:|-----------------|-----------------|-----------------|-----------------|
A:|-4-4-4-4---------|-----------------|-4-4-4-4---------|-----------------|
E:|---------4-4-4-4-|-6-6-6-6-1-1-1-1-|---------4-4-4-4-|-6-6-6-6-6-6-6-6-|

Verse 4:
[REPEAT VERSE]

Pre chorus 2:
*mute*

Verse 5:
*mute*





Ваше мнение



Капча