HOLE
PLAYING YOUR SONG
Bass

Transcribed by Larissa Coolette
Riff A:
G--------|------|
D--------|------|
A--4-----|------|
E--------|-5----|
Riff B:
G------------------------|----------------------|
D------------------------|----------------------|
A--4--4--4--4--4--4--4---|----------------------|
E------------------------|--5--5--5--5--5-5-5--5|
Riff C:
G------------------------|----------------------|-----------------------|
D------------------------|----------------------|-----------------------|
A--4-4-4-4-4-4-4-4-------|----------------------|----4-4--------5-5-4-4-|
E------------------------|-5-5-5-5-5-5-5-5------|--------5-5------------|
Riff D:
G-------------------------------------------|
D-------------------------------------------|
A--5-5-4-4--------5-5---------5-5-4-4-4-4---|
E-------------5-5-----5-5-------------------|
Riff E:
G---------------|--------------|--------------|--------------|
D---------------|--------------|--------------|--------------|
A--4--4---4--4--|--4--4---4--4-|--------------|--------------|
E---------------|--------------|-5-5---5-5----|-4-4---4-4----|
Riff F:
G------------------------|
D------------------------|
A-------5-5-4-4-4-4------|
E--5-5-------------------|
SONG FORMAT:
A-A
B-B
C-C
D-D
B-B
C-C
D-D
E-E-E-E
B-B
C-C
D-D-D-D
F-F-F





Ваше мнение



Капча