HOLE
PETALS
Bass
Transcribed by Larissa Coolette
Riff A:
G--------|------|
D--------|------|
A--3-----|------|
E--------|-0----|
Riff B:
G------------------------|----------------------|
D------------------------|----------------------|
A------------------------|----------------------|
E--5-5-5-5-5-5-5-5-------|5-5-5-5-5-5-5-5-------|
Riff C:
G---------------------|-------------------|-------------------|-----------------|
D---------------------|-------------------|-------------------|-----------------|
A---------------------|3-3-3-3-3-3-3-3----|-------------------|-----------------|
E--5-5-5-5-5-5-5-5----|-------------------|0-0-0-0-0-0-0-0----|0-0-0-0-0-0-0-0--|
Riff D:
G------------------------|----------------------|---------------------|
D------------------------|----------------------|---------------------|
A------------------------|----------------------|---------------------|
E--5-5-5-5-5-5-5-5-------|0-0-0-0-0-0-0-0-------|--5-5-5-5-5-5-5-5----|
G-------------------|-------------------|-------------------|-------------------|
D-------------------|-------------------|-------------------|-------------------|
A3-3-3-3-3-3-3-3----|-------------------|3-3-3-3-3-3-3-3----|-------------------|
E-------------------|0-0-0-0-0-0-0-0----|-------------------|0-0-0-0-0-0-0-0----|
Riff E:
G------------------------|
D------------------------|
A------------------------|
E--1-1-1-1-1-1-1-1-------|
Riff F:
G---------------------|-------------------|-------------------|-------------------|-------------------|
D---------------------|-------------------|-------------------|-------------------|-------------------|
A---------------------|3-3-3-3-3-3-3-3----|-------------------|-------------------|-------------------|
E--5-5-5-5-5-5-5-5----|-------------------|0-0-0-0-0-0-0-0----|1-1-1-1-1-1-1-1----|5-5-5-5-5-5-5-5----|
Riff G:
G---------------------|-------------------|-------------------|-------------------|
D---------------------|-------------------|-------------------|-------------------|
A---------------------|-------------------|-------------------|-------------------|
E--5-5-5-5-5-5-5-5----|1-1-1-1-1-1-1-1----|1-1-1-1-1-1-1-1----|5-5-5-5-5-5-5-5----|
SONG FORMAT:
A-A-A-A-A
B--A-A
B--C-C-C-C
A-A-A--B
A-A-A--B
C-C-C-C--D-D-
D--E
F-F-F
G--A-A-A
B--C-C-C-C-C





Ваше мнение



Капча