HOLE
PALE BLUE EYES
Bass
Transcribed by [email protected]
Intro:
G------|------|------|------|------|
D------|------|------|------|------|
A------|------|------|------|------|
E-1----|-1----|-1----|-1----|-1----|
Riff A:Starts singing:
G------|------|------|------|------|------|------|------|------|------|------|
D------|------|------|------|------|------|------|------|------|------|------|
A------|------|-1----|------|------|-5----|--1---|------|-1-3--|------|------|
E-1----|-1----|------|-1----|-1----|------|-3----|-1----|------|-1----|-1----|
Riff B:
G------------------|-----------------|-----|-----|
D------------------|-----------------|-----|-----|
A-3-3-3-3-3-3-3-3--|-3-3-3-3-3-3-3-3-|-----|-----|
E------------------|-----------------|-1---|-1---|
G------------------|-----------------|-----|-----|
D------------------|-----------------|-----|-----|
A-3-3-3-3-3-3-3-3--|-3-3-3-3-3-3-3-3-|-----|-----|
E------------------|-----------------|-1---|-1---|
SONG FORMAT:
Intro-A-B-A-B-A-B-A-B-B





Ваше мнение



Капча