HOLE
OVER THE EDGE
Bass
Transcribed by [email protected]
Riff A:
G--------|-----------------------|--------------------|
D--------|-----------------------|--------------------|
A---7----|-----------------------|------------------7-|
E--------|8-8-8-8-8-8-8-8--------|8-8-8-8-8-8-8-------|
A A1 A2
G-------------------| |---------------------| |----------------------|
D-------------------| |---------------------| |----------------------|
A-------------------| |-------------------7-| |----------------------|
E---5-5-5-5-5-5-5-5-| |5-5-5-5-5-5-5--------| |5-5-5-5-5-5-5-3-------|
*~* Play A two times. The 1st time play A1 at the end. The 2nd time play A2 *~*
Riff B:
G----------------------|-------------------|----------------|----------------|
D----------------------|-------------------|----------------|----------------|
A----------------------|3-3-3-3-3-3-3-3----|----------------|----------------|
E--0-0-0-0-0-0-0-0-----|-------------------|5-5-5-5-5-5-5-5-|3-3-3-3-3-3-3-3-|
Riff C:
G------------------------|
D------------------------|
A------------------------|
E--0-0-0-0-0-0-0-0-------|
Song Format:
AA B (x6)
C AA B (x4)
C AA B (x6)
C A (X4)





Ваше мнение



Капча