HOLE
OLD AGE
Bass
Transcribed by Larissa Coolette
Intro:
G------|------|------|------|-------|------|------|------|------|------|------|
D------|------|------|------|-------|------|------|------|------|------|------|
A------|------|------|------|-------|------|------|------|------|------|------|
E-0----|-0----|-0----|-0----|-0-----|-0----|-0----|-0----|-0----|-0----|-0----|
Riff A:
G-------|--------|
D-------|--------| (2x)
A-2-----|-3--3-3-|
E---3---|--------|
G-----|-----|---------|------|
D-----|-----|---------|------|
A-----|-----|-3-3-3-3-|-3----|
E-3-3-|-5-5-|---------|------|
Riff B:
G-----|--------|
D-----|--------|
A-----|-3--3-3-|
E-0-0-|--------|
Riff D:
G------------------|----------------|
D------------------|----------------| (4x)
A------------------|----------------|
E-5-5-5-5-5-5-5-5--|-0-0-0-0-0-0-0-0-|
G------------------|-----------------|-----------------|----------------|
D------------------|-----------------|-----------------|----------------|
A------------------|-2-2-2-2-2-2-2-2-|-2-2-2-2-2-2-2-2-|-3-3-3-3-3-3-3-3|
E-5-5-5-5-5-5-5-3--|-----------------|-----------------|----------------|
Riff E:
G-----------------|-----|
D-----------------|-----|
A-----------------|-----|
E-3-3-3-3-3-3-3-3-|-1---|
SONG FORMAT:
Intro
A-B-A-B
C-D
A-B-A-B
C-D-E
A-B-A-B
C-D-D





Ваше мнение



Капча