t. See http://www.olga.net/faq/ for more information. #

From: "Candy Darling"
Subject: h/hole/northern_star.crd
Date: Tue, 16 Mar 1999 09:04:31 PST

Northern Star

HOLE

Riff One:

1:--------------------------------------
2:--------------------------------------
3:----------------------------------1--2
4:--------3------------2---------------2
5:-----3------------3------------2-----0
6:--1--------1---0--------0---0---------

Riff Two:

1:-----------------------------------------
2:---------1------------1-----------0------
3:-----0-------------0----------1------2---
4:--3---------3---2--------2--2--------2---
5:----------------------------------------0
6:-----------------------------------------

After that play Em

Verse:

Am Em Am Em Am Em
Am C Em
Am D
Em Em/F#
Am D
C Em
Am D C Em (riff one)

Chorus:

G (riff one) (4 times)
G (riff one and two)





Ваше мнение



Капча