Northern Star
Hole
Celebrity Skin

Tabbed by Nic Young
http://garbageman.cjb.net

Intro:
Rhy. Fig #1
e--------------------------------|
B--------------------------------|
G---------------------------1--2-|
D-----3----------2-------------2-|
A---3---------3----------2-----0-|
E-1-----1--0--------0--0---------|

Rhy. Fig #2
e-----------------------------------|
B------1------------1----------0----|
G---0------------0----------1-----2-|
D-3-------3---2--------2--2-------2-|
A-----------------------------------|
E-----------------------------------|

Before the verses strum Em several times.

Verse:

Am Em
Am Em
Am Em
Am C Em
Am D
Em Em/F#
Am D
C Em
Am D C Em
Then play Rhy. Fig #1

Chorus
G (Rhy. Fig #1) (Play 4 times)

G (Rhy. Fig #1, then #2)

Bridge:
E C
E C
Am D
E C
E C
Am D
G Em





Ваше мнение



Капча