Artist: Hole
Song: Malibu
Album: Celebrity Skin
Tuning: Normal
Transcribed by: Bruno Calatroni
intro and verse chord progression:
E---2----2----0----0----
B---3----3----3----2----
G---0----2----4----2----
D---2----0----4----2----
A---2---------2----0----
E---0-------------------
chorus:
E---------------------------0--0--0--0--0---2--2--2--2---0--0--0--0---
B----------3--3--3----------0--0--0--0--0---3--3--3--3---2--2--2--2---
G----------0--0--0----------0--0--0--0--0---2--2--2--2---2--2--2--2---
D----------0--0--0----------2--2--2--2--2---0--0--0--0---2--2--2--2---
A----------2--2--2----------2--2--2--2--2----------------0--0--0--0---
E---0--2---3--3--3---3--2---0--0--0--0--0-----------------------------
bridge chord progression
E---0-----0-------0------0--0--0--0---------- ------0-----
B---1-----3-------2------3--2--0--2----------last time ------0-----
G---0-----2-------2------2--2--2--2---------- ------1-----
D---2-----0-------2------2--2--2--2---------- ------2-----
A---3-----X-------0------0--0--0--0---------- ------2-----
E---3-----2---------------------------------- ------0-----
end on:
E---2------------
B---3------------
G---2------------
D---0------------
A----------------
E----------------
please let me know what you think and email me at [email protected]





Ваше мнение



Капча