THESE ARE ALL THE TABS TO THE LIVE THROUGH THIS ALBUM BY HOLE. ALL SONGS
TRANSCRIBED BY JONATHAN AIYADURAI .
SPECIAL THANKS TO CHRIS LAWRENCE FOR EDITING.
---------------------------------------------------------------------------
VIOLET - played clean unless noted
VERSE
1]-------------------------------------]
2]-0-----0---0-----0-----0-----0-------]
3]-----------------------------------0-]
4]-6-----6---6-----2-----2-----2-----0-] x4 For the fourth time, turn on
5]-7-7-7-7-7-7-x-x-3-3-3-3-3-3-3-x-x-2-] distortion and slide down
6]-----------------------------------3-] fretboard
CHORUS
1]-0-0-0-1-1-1-3-]
2]-0-0-0-1-1-1-3-]
3]-1-1-1-2-2-2-0-]
4]-2-2-2-3-3-3-0-] x4 with distortion
5]-2-2-2-3-3-3-2-]
6]-0-0-0-1-1-1-3-]
VERSE
1]-----------------------------------]
2]-0-0-0-0---0-0-0-0-0---------------]
3]-----------------------------------]
4]-6-6-6-6\2-2-2/4-4-4-0-----0-------] x2
5]-7-7-7-7\3-3-3/5-5-5\4-----4-------]
6]---------------------5-5-5-5-5-5-5-]
CHORUS
1]------------------------------------10-10-10-10\5-5-5-5-5-5-]
2]------------------------------------10-10-10-10\5-5-5-5-5-5-]
3]-9-9-9-9-9-8-8/-9--9--9--9--9--9--9/11-11-11-11\6-6-6-6-6-6-]
4]-9-9-9-9-9-9-9/10-10-10-10-10-10-10/12-12-12-12\7-7-7-7-7-7-] x2 with
5]-7-7-7-7-7-9-9/10-10-10-10-10-10-10/12-12-12-12\7-7-7-7-7-7-] dist..
6]-0-0-0-0-0-7-7/-8--8--8--8--8--8--8/10-10-10-10\5-5-5-5-5-5-]
VERSE
1]-------------------------------------]
2]-0-----0---0-----0-----0-----0-------]
3]-----------------------------------0-]
4]-6-----6---6-----2-----2-----2-----0-] x4
5]-7-7-7-7-7-7-x-x-3-3-3-3-3-3-3-x-x-2-]
6]-----------------------------------3-]
CHORUS
1]-0-0-0-1-1-1-3-]
2]-0-0-0-1-1-1-3-]
3]-1-1-1-2-2-2-0-]
4]-2-2-2-3-3-3-0-] x4 with distortion
5]-2-2-2-3-3-3-2-]
6]-0-0-0-1-1-1-3-]
VERSE
1]-----------------------------------]
2]-0-0-0-0---0-0-0-0-0---------------]
3]-----------------------------------]
4]-6-6-6-6\2-2-2/4-4-4-0-----0-------] x2
5]-7-7-7-7\3-3-3/5-5-5\4-----4-------]
6]---------------------5-5-5-5-5-5-5-]
CHORUS
1]------------------------------------10-10-10-10\5-5-5-5-5-5-]
2]------------------------------------10-10-10-10\5-5-5-5-5-5-]
3]-9-9-9-9-9-8-8/-9--9--9--9--9--9--9/11-11-11-11\6-6-6-6-6-6-]
4]-9-9-9-9-9-9-9/10-10-10-10-10-10-10/12-12-12-12\7-7-7-7-7-7-] x2 with
5]-7-7-7-7-7-9-9/10-10-10-10-10-10-10/12-12-12-12\7-7-7-7-7-7-] dist..
6]-0-0-0-0-0-7-7/-8--8--8--8--8--8--8/10-10-10-10\5-5-5-5-5-5-]
VERSE
1]-----------------------------------]
2]-0-0-0-0---0-0-0-0-0---------------]
3]-----------------------------------]
4]-6-6-6-6\2-2-2/4-4-4-0-----0-------] x2
5]-7-7-7-7\3-3-3/5-5-5\4-----4-------]
6]---------------------5-5-5-5-5-5-5-]
CHORUS
1]------------------------------------10-10-10-10\5-5-5-5-5-5-]
2]------------------------------------10-10-10-10\5-5-5-5-5-5-]
3]-9-9-9-9-9-8-8/-9--9--9--9--9--9--9/11-11-11-11\6-6-6-6-6-6-]
4]-9-9-9-9-9-9-9/10-10-10-10-10-10-10/12-12-12-12\7-7-7-7-7-7-] x2 with
5]-7-7-7-7-7-9-9/10-10-10-10-10-10-10/12-12-12-12\7-7-7-7-7-7-] dist..
6]-0-0-0-0-0-7-7/-8--8--8--8--8--8--8/10-10-10-10\5-5-5-5-5-5-]
BRIDGE
1]----------------0--0-0-0-0-0--0--0--0--0--0---0--0--0-------]
2]--0--0-0-0-0-0----------------------------------------------]
3]---------------12-12-9-9-9-9/14-14-14-14-14\-11-11-11-------]
4]--9--9-6-6-6-6-10-10-7-7-7-7/12-12-12-12-12\--9--9--9-------] x2 with
5]-10-10-7-7-7-7----------------------------------------------] feedback
6]------------------------------------------------------0-0-0-]
CHORUS
1]------------------------------------10-10-10-10\5-5-5-5-5-5-]
2]------------------------------------10-10-10-10\5-5-5-5-5-5-]
3]-9-9-9-9-9-8-8/-9--9--9--9--9--9--9/11-11-11-11\6-6-6-6-6-6-]
4]-9-9-9-9-9-9-9/10-10-10-10-10-10-10/12-12-12-12\7-7-7-7-7-7-] x2 with
5]-7-7-7-7-7-9-9/10-10-10-10-10-10-10/12-12-12-12\7-7-7-7-7-7-] dist..
6]-0-0-0-0-0-7-7/-8--8--8--8--8--8--8/10-10-10-10\5-5-5-5-5-5-]
OUTRO
Guitar 1 plays this...
1]------------------------------------10-10-10-10\5-5-5-5-5-5-]
2]------------------------------------10-10-10-10\5-5-5-5-5-5-]
3]-9-9-9-9-9-8-8/-9--9--9--9--9--9--9/11-11-11-11\6-6-6-6-6-6-]
4]-9-9-9-9-9-9-9/10-10-10-10-10-10-10/12-12-12-12\7-7-7-7-7-7-] x1 with
5]-7-7-7-7-7-9-9/10-10-10-10-10-10-10/12-12-12-12\7-7-7-7-7-7-] dist..
6]-0-0-0-0-0-7-7/-8--8--8--8--8--8--8/10-10-10-10\5-5-5-5-5-5-]
1]------------------------------------10-10-10-10\5-5-5-5-5-5-]
2]------------------------------------10-10-10-10\5-5-5-5-5-5-]
3]-9-9-9-9-9-8-8/-9--9--9--9--9--9--9/11-11-11-11\6-6-6-6-6-6-]
4]-9-9-9-9-9-9-9/10-10-10-10-10-10-10/12-12-12-12\7-7-7-7-7-7-] x1 with
5]-7-7-7-7-7-9-9/10-10-10-10-10-10-10/12-12-12-12\7-7-7-7-7-7-] dist..
6]-0-0-0-0-0-7-7/-8--8--8--8--8--8--8/10-10-10-10\5-5-5-5-5-5-]
1]---]
2]---]
3]-9-]
4]-9-] x1 with distorion
5]-7-]
6]-0-]
...While guitar 2 plays this underneath guitar 1.
1]-0---0-0-0\0/----0--0--0\0/----0--0--0--0----------------------]
2]---------------------------------------------------------------]
3]-4/9-9-9-9\4/-9--9--9--9\4/14-14-14-14-14----------------------]
4]-4/9-9-9-9\4/10-10-10-10\4/12-12-12-12-12-16-14-16-17-17-16-14-] x1 with
5]---------------------------------------------------------------] dist..
6]---------------------------------------------------------------]
1]--------------------------0--0--0--0--0--0--0--0--0--0--0--0--0--0--0-]
2]----------------------------------------------------------------------]
3]-------------------------21-21-21-21-21-21-21-21-19-19-19-19-19-19-19-]
4]-16-14-16-17-17-17-16-14-21-21-21-21-21-21-21-21-17-17-17-17-17-17-17-]
5]----------------------------------------------------------------------]
6]----------------------------------------------------------------------]
1]--0--0--0--0--0--0--0--0----------------------------------]
2]----------------------------------------------------------]
3]-21-21-21-21-21-21-21-21----------------------------------]
4]-19-19-19-19-19-19-19-19-17-16-14-17-14-16-14-14(bend up)-] x1 with dist
5]----------------------------------------------------------]
6]----------------------------------------------------------]
---------------------------------------------------------------------------
MISS WORLD - played clean unless noted
INTRO
1]-----3---------2---2-----1---1-----0---0--]
2]-----0---------3---------1---------1------]
3]---0-----0---2---------2---2-------0---0--]
4]-0---------0-----0---3-----------2--------] x3
5]-2-----2---0-------------------3----------]
6]-3----------------------------------------]
1]-----3---------2---2-----1---1-0-]
2]-----0---------3---------1-----1-]
3]---0-----0---2---------2---2---0-]
4]-0---------0-----0---3---------2-]
5]-2-----2---0-------------------3-]
6]-3-------------------------------]
If you suck at reading tab, just arpeggiate the G,D,F,C chords x4 for
the above.
VERSE/CHORUS
1]---3-3/--5-5/----7-7-7-7---7-7\--5-5\----3-*-3-3-3-]
2]---3-3/--5-5/----7-7-7-7---7-7\--5-5\----3-*-3-3-3-] "/" = slide up.
3]---0-0/--0-0/----0-0-0-0-0-0-0\0-0-0\0-0-0-*-0-0-0-] "\" = slide down.
4]-0-0-0/0-0-0/0-0-0-0-0-0-5---5\4---4\2-2---*-------] "*" = 2nd guitar
5]-2---2/4---4/5-5---------7---7\5---5\3-3---*-------] joins in.
6]-3---3/5---5/7-7--------------\-----\------*-------]
1]---3-3/--5-5/----7-7-7-7---7-7\--5-5\----3-3-3-3-]
2]---3-3/--5-5/----7-7-7-7---7-7\--5-5\----3-3-3-3-]
3]---0-0/--0-0/----0-0-0-0-0-0-0\0-0-0\0-0-0-0-0-0-]
4]-0-0-0/0-0-0/0-0-0-0-0-0-5---5\4---4\2-2---------] x7
5]-2---2/4---4/5-5---------7---7\5---5\3-3---------]
6]-3---3/5---5/7-7--------------\-----\------------]
CHORUS
1]-------------------------------------------------]
2]-------------------------------------------------]
3]-4-4-4-6-6-6-8-8-8-9-9-9-7-7-7-5-5-5-------------]
4]-5-5-5-7-7-7-9-9-9-9-9-9-7-7-7-5-5-5-------------] x4 with distortion
5]-5-5-5-7-7-7-9-9-9-7-7-7-5-5-5-3-3-3-------------]
6]-3-3-3-5-5-5-7-7-7-------------------------------]
VERSE
1]---3-3/--5-5/----7-7-7-7---7-7\--5-5\----3-3-3-3-]
2]---3-3/--5-5/----7-7-7-7---7-7\--5-5\----3-3-3-3-]
3]---0-0/--0-0/----0-0-0-0-0-0-0\0-0-0\0-0-0-0-0-0-]
4]-0-0-0/0-0-0/0-0-0-0-0-0-5---5\4---4\2-2---------] x3
5]-2---2/4---4/5-5---------7---7\5---5\3-3---------]
6]-3---3/5---5/7-7--------------\-----\------------]
CHORUS
1]-------------------------------------------------]
2]-------------------------------------------------]
3]-4-4-4-6-6-6-8-8-8-9-9-9-7-7-7-5-5-5-------------]
4]-5-5-5-7-7-7-9-9-9-9-9-9-7-7-7-5-5-5-------------] x4 with distortion
5]-5-5-5-7-7-7-9-9-9-7-7-7-5-5-5-3-3-3-------------]
6]-3-3-3-5-5-5-7-7-7-------------------------------]
1]-3-]
2]-3-]
3]-0-]
4]-0-] with distortion. Let feedback ring from 2nd guitar through outro.
5]-2-]
6]-3-]
OUTRO
1]-----3---------2---2-----1---1-0-]
2]-----0---------3---------1-----1-]
3]---0-----0---2---------2---2---0-]
4]-0---------0-----0---3---------2-] 1st guitar plays this clean x1.
5]-2-----2---0-------------------3-]
6]-3-------------------------------]
---------------------------------------------------------------------------
PLUMP - played with distortion unless noted
INTRO/VERSE
1]-----------------------------------------]
2]-------------------------------------2-0-]
3]-------------------------------------2-1-]
4]-4-4-4-4-4-4-4-4-4-4-4-4-4-4-4-4-4-4-2-2-] x6
5]-4-4-4-4-4-4-4-4-4-4-4-4-4-4-4-4-4-4-0-2-]
6]-2-2-0-0-0-0-2-2-0-0-0-0-2-2-0-0-0-0---0-]
CHORUS
1]---------]
2]---------]
3]-9-9-9-7-]
4]-9-9-9-7-] x4
5]-7-7-7-5-]
6]---------]
VERSE
1]-----------------------------------------]
2]-------------------------------------2-0-]
3]-------------------------------------2-1-]
4]-4-4-4-4-4-4-4-4-4-4-4-4-4-4-4-4-4-4-2-2-] x5
5]-4-4-4-4-4-4-4-4-4-4-4-4-4-4-4-4-4-4-0-2-]
6]-2-2-0-0-0-0-2-2-0-0-0-0-2-2-0-0-0-0---0-]
CHORUS
1]---------]
2]---------]
3]-9-9-9-7-]
4]-9-9-9-7-] x4
5]-7-7-7-5-]
6]---------]
INTERLUDE
1]---------------------------------]
2]-------------------------2-2-2-2-]
3]-------------------------2-2-2-2-]
4]-4-4-4-4-4-4-4-4-4-4-4-4-2-2-2-2-] x1
5]-4-4-4-4-4-4-4-4-4-4-4-4-0-0-0-0-]
6]-2-2-0-0-0-0-2-2-0-0-0-0---------]
1]---------------3-]
2]-----3-3 ------3-]
3]-----4-4-------0-]
4]---4---------0---] x8 Eric uses a chorus or flange effect
5]-2---------2-----]
6]---------3-------]
VERSE
1]-----------------------------------------]
2]-------------------------------------2-0-]
3]-------------------------------------2-1-]
4]-4-4-4-4-4-4-4-4-4-4-4-4-4-4-4-4-4-4-2-2-] x6
5]-4-4-4-4-4-4-4-4-4-4-4-4-4-4-4-4-4-4-0-2-]
6]-2-2-0-0-0-0-2-2-0-0-0-0-2-2-0-0-0-0---0-]
CHORUS
1]---------]
2]---------]
3]-9-9-9-7-]
4]-9-9-9-7-] x4
5]-7-7-7-5-]
6]---------]
1]---------------------------------]
2]-------------------------2-2-2-2-]
3]-------------------------2-2-2-2-]
4]-4-4-4-4-4-4-4-4-4-4-4-4-2-2-2-2-] x1
5]-4-4-4-4-4-4-4-4-4-4-4-4-0-0-0-0-]
6]-2-2-0-0-0-0-2-2-0-0-0-0---------]
---------------------------------------------------------------------------
ASKING FOR IT - played clean unless noted
There are three guitars used in this song, Guitar 1 is a 6-string
electric, Guitar 2 is a 12-string electric, and Guitar 3 is a 12-string
acoustic. Guitar parts 1, 2, and 3 are played at the same time.
For the intro, Guitar 2 plays a harmonic on the 7th fret on the low E
string (which is tuned to a low D).
Played in drop D tuning
INTRO
Guitar 1 is louder than guitar 2 and plays the lead stuff.
Guitars 1 and 2 play this:
1]-2-----------3---------------------------------------]
2]-3-----------3-----------2---------------------------]
3]-2-----------0-----------2---------------0---0---0---]
4]-0-----------2-----------2-------------0---0---0---0-] x1
5]-0-----------3-----------0---------------------------]
6]-------------------------------------5-----5-5-----5-]
Guitar 3 joins in playing this underneath guitars 1 and 2
1]-----------------------------------------------------]
2]-------------------------2-2-2-2-2-2-----------------]
3]-------------------------2-2-2-2-2-2-0-0-0-0-0-0-0-0-]
4]-------------------------2-2-2-2-2-2-0-0-0-0-0-0-0-0-] x1
5]-------------------------0-0-0-0-0-0-----------------]
6]-------------------------------------5-5-5-5-5-5-5-5-]
VERSE
Guitars 1 and 2
1]-2-----------3---------------------------------------]
2]-3-----------3-----------2---------------------------]
3]-2-----------0-----------2---------------0---0---0---]
4]-0-----------2-----------2-------------0---0---0---0-] x4
5]-0-----------3-----------0---------------------------]
6]-------------------------------------5-----5-5-----5-]
Guitar 3
1]-2-2-2-2-2-2-3-3-3-3-3-3-----------------------------]
2]-3-3-3-3-3-3-3-3-3-3-3-3-2-2-2-2-2-2-----------------]
3]-2-2-2-2-2-2-0-0-0-0-0-0-2-2-2-2-2-2-----------------]
4]-0-0-0-0-0-0-2-2-2-2-2-2-2-2-2-2-2-2-5-5-5-5-5-5-5-5-] x4
5]-0-0-0-0-0-0-3-3-3-3-3-3-0-0-0-0-0-0-5-5-5-5-5-5-5-5-]
6]-------------------------------------5-5-5-5-5-5-5-5-]
CHORUS
All guitars play this.
1]-----------2-2-2-2-]
2]-----------3-3-3-3-]
3]-----------2-2-2-2-]
4]-3-3-3-3-0---------] x4
5]-3-3-3-3-0---------]
6]-3-3-3-3-0---------]
VERSE
Guitars 1 and 2
1]-2-----------3---------------------------------------]
2]-3-----------3-----------2---------------------------]
3]-2-----------0-----------2---------------0---0---0---]
4]-0-----------2-----------2-------------0---0---0---0-] x1
5]-0-----------3-----------0---------------------------]
6]-------------------------------------5-----5-5-----5-]
Guitar 3
1]-----------------------------------------------------]
2]-------------------------2-2-2-2-2-2-----------------]
3]-------------------------2-2-2-2-2-2-0-0-0-0-0-0-0-0-]
4]-------------------------2-2-2-2-2-2-0-0-0-0-0-0-0-0-] x1
5]-------------------------0-0-0-0-0-0-----------------]
6]-------------------------------------5-5-5-5-5-5-5-5-]
Guitar 1
1]-2-----------3---------------------------------------]
2]-3-----------3-----------2---------------------------]
3]-2-----------0-----------2---------------0---0---0---]
4]-0-----------2-----------2-------------0---0---0---0-] x2
5]-0-----------3-----------0---------------------------]
6]-------------------------------------5-----5-5-----5-]
Guitars 2 and 3
1]-2-2-2-2-2-2-3-3-3-3-3-3-----------------------------]
2]-3-3-3-3-3-3-3-3-3-3-3-3-2-2-2-2-2-2-----------------]
3]-2-2-2-2-2-2-0-0-0-0-0-0-2-2-2-2-2-2-----------------]
4]-0-0-0-0-0-0-2-2-2-2-2-2-2-2-2-2-2-2-5-5-5-5-5-5-5-5-] x2 Guitar 2
5]-0-0-0-0-0-0-3-3-3-3-3-3-0-0-0-0-0-0-5-5-5-5-5-5-5-5-] with dist..
6]-------------------------------------5-5-5-5-5-5-5-5-]
Guitar 1
1]-2-----------3---------------------------------------]
2]-3-----------3-----------2---------------------------]
3]-2-----------0-----------2---------------0---0---0---]
4]-0-----------2-----------2-------------0---0---0---0-] x4 with
5]-0-----------3-----------0---------------------------] distortion
6]-------------------------------------5-----5-5-----5-]
Guitars 2 and 3
1]-2-2-2-2-2-2-3-3-3-3-3-3-----------------------------]
2]-3-3-3-3-3-3-3-3-3-3-3-3-2-2-2-2-2-2-----------------]
3]-2-2-2-2-2-2-0-0-0-0-0-0-2-2-2-2-2-2-----------------]
4]-0-0-0-0-0-0-2-2-2-2-2-2-2-2-2-2-2-2-5-5-5-5-5-5-5-5-] x4 Guitar 2
5]-0-0-0-0-0-0-3-3-3-3-3-3-0-0-0-0-0-0-5-5-5-5-5-5-5-5-] with dist..
6]-------------------------------------5-5-5-5-5-5-5-5-]
CHORUS
All guitars play this.
1]-----------2-2-2-2-]
2]-----------3-3-3-3-]
3]-----------2-2-2-2-]
4]-3-3-3-3-0---------] x4
5]-3-3-3-3-0---------]
6]-3-3-3-3-0---------]
MIDDLE
All guitars also play this.
1]---------------------]
2]---------------------]
3]---------------------]
4]-3-3-3-3-3-3-3-3-3-3-] x1
5]-3-3-3-3-3-3-3-3-3-3-]
6]-3-3-3-3-3-3-3-3-3-3-]
1]-2-2-2-2-2-2-3-3-3-3-3-3-----------------------------]
2]-3-3-3-3-3-3-3-3-3-3-3-3-2-2-2-2-2-2-----------------]
3]-2-2-2-2-2-2-0-0-0-0-0-0-2-2-2-2-2-2-----------------]
4]-0-0-0-0-0-0-2-2-2-2-2-2-2-2-2-2-2-2-5-5-5-5-5-5-5-5-] x4
5]-0-0-0-0-0-0-3-3-3-3-3-3-0-0-0-0-0-0-5-5-5-5-5-5-5-5-]
6]-------------------------------------5-5-5-5-5-5-5-5-]
1]-------------------------2/4-2-]
2]-------------------------3/5-3-]
3]-------------------------2/4-2-]
4]-4-5-4-4-4-4-2-3-2-2-2-2-------] x2
5]-5-5-5-5-5-5-3-3-3-3-3-3-------]
6]-------------------------------]
CHORUS
Both guitars play this.
1]-----------2-2-2-2-]
2]-----------3-3-3-3-]
3]-----------2-2-2-2-]
4]-3-3-3-3-0---------] x8 with distortion
5]-3-3-3-3-0---------]
6]-3-3-3-3-0---------]
OUTRO
Guitar 1
1]-2------3--------------------2------]
2]-3------3------2-------------3------]
3]-2------0------2-------------2------]
4]-0------2------2------5------0------] x1 with distorion
5]-0------3------0------5------0------]
6]----------------------5-------------]
Guitar 2
1]-2----------------------------------]
2]-3----------------------------------]
3]-2----------------------------------]
4]-0----------------------------------] x1 let ring and feedback
5]-0----------------------------------]
6]------------------------------------]
---------------------------------------------------------------------------
JENNIFER'S BODY - played clean unless noted
INTRO
1]-------------------------------]
2]-0-0-0--0--0--0----------------]
3]-----------------0--0--0-0-0-0-]
4]-6-6-6--9--9--9----------------] x4
5]-7-7-7-10-10-10--9--9--9-6-6-6-]
6]----------------10-10-10-7-7-7-]
VERSE
1]--------------------------------------]
2]--------------------------------------]
3]-9-9-9-9-12-12-12---------------------]
4]-9-9-9-9-12-12-12-12-12-12-12-9-9-9-9-] x4
5]-7-7-7-7-10-10-10-12-12-12-12-9-9-9-9-]
6]------------------10-10-10-10-7-7-7-7-]
PRE-CHORUS
1]-0-0-0-0-0-3-3-3-3-3-3---------------------]
2]-0-0-0-0-0-3-3-3-3-3-3-7-7-7-7-7\4-4-4-4-4-]
3]-1-1-1-1-1-0-0-0-0-0-0-7-7-7-7-7\4-4-4-4-4-]
4]-2-2-2-2-2-0-0-0-0-0-0-7-7-7-7-7\4-4-4-4-4-] x4 with distortion
5]-2-2-2-2-2-2-2-2-2-2-2-5-5-5-5-5\2-2-2-2-2-]
6]-0-0-0-0-0-3-3-3-3-3-3---------------------]
CHORUS
There's a break where just the bass plays and Eric plays a D chord.
1]-------------------------------------------------]
2]---------3-3-3-3-3-3---------------5-5-5-5-5-5-5-]
3]-4-4-4-4-4-4-4-4-4-4-7-7-7-7-7-7-7-6-6-6-6-6-6-6-]
4]-4-4-4-4-5-5-5-5-5-5-7-7-7-7-7-7-7-7-7-7-7-7-7-7-] x3
5]-2-2-2-2-5-5-5-5-5-5-5-5-5-5-5-5-5-7-7-7-7-7-7-7-]
6]---------3-3-3-3-3-3---------------5-5-5-5-5-5-5-]
1]-------------------------------------------------]
2]-------------------------------------------------]
3]-----4---4-------4---4-------7---7---------------]
4]---4---4-----------5-------7---7---------7---7---] x2
5]-2---------2---5-------5-5---------5---7---7---7-]
6]-------------3-----------------------5-----------]
1]-----------3-3-3-3-3-3-]
2]-----------0-0-0-0-0-2-]
3]-4-4-4-4-4-0-0-0-0-0-3-]
4]-4-4-4-4-4-0-0-0-0-0---] x1 Let last chord ring
5]-2-2-2-2-2-2-2-2-2-2---]
6]-----------3-3-3-3-3---]
VERSE
1]-------------------------------]
2]-0-0-0--0--0--0----------------]
3]-----------------0--0--0-0-0-0-]
4]-6-6-6--9--9--9----------------] x4
5]-7-7-7-10-10-10--9--9--9-6-6-6-]
6]----------------10-10-10-7-7-7-]
1]--------------------------------------]
2]--------------------------------------]
3]-9-9-9-9-12-12-12---------------------]
4]-9-9-9-9-12-12-12-12-12-12-12-9-9-9-9-] x4
5]-7-7-7-7-10-10-10-12-12-12-12-9-9-9-9-]
6]------------------10-10-10-10-7-7-7-7-]
PRE-CHORUS
1]-0-0-0-0-0-3-3-3-3-3-3---------------------]
2]-0-0-0-0-0-3-3-3-3-3-3-7-7-7-7-7\4-4-4-4-4-]
3]-1-1-1-1-1-0-0-0-0-0-0-7-7-7-7-7\4-4-4-4-4-]
4]-2-2-2-2-2-0-0-0-0-0-0-7-7-7-7-7\4-4-4-4-4-] x4 with distortion
5]-2-2-2-2-2-2-2-2-2-2-2-5-5-5-5-5\2-2-2-2-2-]
6]-0-0-0-0-0-3-3-3-3-3-3---------------------]
CHORUS
There's a break where just the bass plays and Eric slides up and down
the neck.
1]-------------------------------------------------]
2]---------3-3-3-3-3-3---------------5-5-5-5-5-5-5-]
3]-4-4-4-4-4-4-4-4-4-4-7-7-7-7-7-7-7-6-6-6-6-6-6-6-]
4]-4-4-4-4-5-5-5-5-5-5-7-7-7-7-7-7-7-7-7-7-7-7-7-7-] x3
5]-2-2-2-2-5-5-5-5-5-5-5-5-5-5-5-5-5-7-7-7-7-7-7-7-]
6]---------3-3-3-3-3-3---------------5-5-5-5-5-5-5-]
1]-------------------------------------------------]
2]-------------------------------------------------]
3]-----4---4-------4---4-------7---7---------------]
4]---4---4-----------5-------7---7---------7---7---] x2
5]-2---------2---5-------5-5---------5---7---7---7-]
6]-------------3-----------------------5-----------]
1]-----------3-3-3-3-3-3-]
2]-----------0-0-0-0-0-2-]
3]-4-4-4-4-4-0-0-0-0-0-3-]
4]-4-4-4-4-4-0-0-0-0-0---] x3 Let last chord ring
5]-2-2-2-2-2-2-2-2-2-2---]
6]-----------3-3-3-3-3---]
---------------------------------------------------------------------------
DOLL PARTS - played clean
VERSE
1]------------------------------]
2]-2--2-2-2-0--0-0-0-3--3-3-3-0-]
3]-2--2-2-2-0--0-0-0-0--0-0-0-0-]
4]-2--2-2-2-2--2-2-2-0--0-0-0-2-] x2
5]-0--0-0-0-3--3-3-3-2--2-2-2-3-]
6]-------------------3--3-3-3---]
PRE-CHORUS
1]-------------------------------------------------]
2]-2-2-2-2-2-2-0-0-0-0-0-0-3-3-3-3-3-3-0-0-0-0-0-0-]
3]-2-2-2-2-2-2-0-0-0-0-0-0-0-0-0-0-0-0-0-0-0-0-0-0-]
4]-2-2-2-2-2-2-2-2-2-2-2-2-0-0-0-0-0-0-2-2-2-2-2-2-] x2
5]-0-0-0-0-0-0-3-3-3-3-3-3-2-2-2-2-2-2-3-3-3-3-3-3-]
6]-------------------------3-3-3-3-3-3-------------]
CHORUS
1]--------------------------------]
2]-2-2-2-0-0-0-3--3-3-3-3-3-3-3-3-]
3]-2-2-2-0-0-0-0--0-0-0-0-0-0-0-0-]
4]-2-2-2-2-2-2-0--0-0-0-0-0-0-0-0-] x8
5]-0-0-0-3-3-3-2--2-2-2-2-2-2-2-2-]
6]-------------3--3-3-3-3-3-3-3-3-]
VERSE
1]------------------------------]
2]-2--2-2-2-0--0-0-0-3--3-3-3-0-]
3]-2--2-2-2-0--0-0-0-0--0-0-0-0-]
4]-2--2-2-2-2--2-2-2-0--0-0-0-2-] x2
5]-0--0-0-0-3--3-3-3-2--2-2-2-3-]
6]-------------------3--3-3-3---]
PRE-CHORUS
1]-------------------------------------------------]
2]-2-2-2-2-2-2-0-0-0-0-0-0-3-3-3-3-3-3-0-0-0-0-0-0-]
3]-2-2-2-2-2-2-0-0-0-0-0-0-0-0-0-0-0-0-0-0-0-0-0-0-]
4]-2-2-2-2-2-2-2-2-2-2-2-2-0-0-0-0-0-0-2-2-2-2-2-2-] x2
5]-0-0-0-0-0-0-3-3-3-3-3-3-2-2-2-2-2-2-3-3-3-3-3-3-]
6]-------------------------3-3-3-3-3-3-------------]
CHORUS
1]--------------------------------]
2]-2-2-2-0-0-0-3--3-3-3-3-3-3-3-3-]
3]-2-2-2-0-0-0-0--0-0-0-0-0-0-0-0-]
4]-2-2-2-2-2-2-0--0-0-0-0-0-0-0-0-] x4
5]-0-0-0-3-3-3-2--2-2-2-2-2-2-2-2-]
6]-------------3--3-3-3-3-3-3-3-3-]
OUTRO
1]-------------------------------]
2]-2-2-2-0-0-0-3-3-3-3-3-3-3-3-3-]
3]-2-2-2-0-0-0-0-0-0-0-0-0-0-0-0-]
4]-2-2-2-2-2-2-0-0-0-0-0-0-0-0-0-] x6
5]-0-0-0-3-3-3-2-2-2-2-2-2-2-2-2-]
6]-------------3-3-3-3-3-3-3-3-3-]
1]---------------]
2]-2-2-2-0-0-0-3-]
3]-2-2-2-0-0-0-0-]
4]-2-2-2-2-2-2-0-] x1
5]-0-0-0-3-3-3-2-]
6]-------------3-]
---------------------------------------------------------------------------
CREDIT IN THE STRAIGHT WORLD - played clean unless noted
It starts with an excerp of Old Age. That part is done with a keyboard.
INTRO
1]-------------------------------------------------]
2]-------------------------------------------------]
3]-2-x-2-x-x-x-2-x-2-x-x-x-2-x-2-x-x-x-2-x-2-x-x-x-]
4]-2-x-2-x-x-x-2-x-2-x-x-x-2-x-2-x-x-x-2-x-2-x-x-x-] x1
5]-2-x-2-x-x-x-2-x-2-x-x-x-2-x-2-x-x-x-2-x-2-x-x-x-]
6]-0-x-0-x-x-x-0-x-0-x-x-x-0-x-0-x-x-x-0-x-0-x-x-x-]
1]-------------------------------------------------]
2]-------------------------------------------------]
3]-2-2-2-2-2-2-2-2-2-2-2-2-2-2-2-2-2-2-2-2-2-2-2-2-]
4]-2-2-2-2-2-2-2-2-2-2-2-2-2-2-2-2-2-2-2-2-2-2-2-2-] x1
5]-2-2-2-2-2-2-2-2-2-2-2-2-2-2-2-2-2-2-2-2-2-2-2-2-]
6]-0-0-0-0-0-0-0-0-0-0-0-0-0-0-0-0-0-0-0-0-0-0-0-0-]
1]-----------------------------------1-------------]
2]-----------------------------------------5-----5-]
3]-2-2-2-2-2-2-3-3-3-3-3-3-----3-------5-5---5-----]
4]-2-2-2-2-2-2-3-3-3-3-3-3-4-4---4-4---5-5-----5---] x2 with distortion
5]-2-2-2-2-2-2-1-1-1-1-1-1-4-4-----4---3-3---------]
6]-0-0-0-0-0-0-------------2-2---------------------]
VERSE/CHORUS
1]-------------------------------------------------]
2]-------------------------------------------------]
3]-2-x-2-x-x-x-2-x-2-x-x-x-2-x-2-x-x-x-2-x-2-x-x-x-]
4]-2-x-2-x-x-x-2-x-2-x-x-x-2-x-2-x-x-x-2-x-2-x-x-x-] x2
5]-2-x-2-x-x-x-2-x-2-x-x-x-2-x-2-x-x-x-2-x-2-x-x-x-]
6]-0-x-0-x-x-x-0-x-0-x-x-x-0-x-0-x-x-x-0-x-0-x-x-x-]
1]-----------------------------------1-------------]
2]-----------------------------------------5-----5-]
3]-2-2-2-2-2-2-3-3-3-3-3-3-----3-------5-5---5-----]
4]-2-2-2-2-2-2-3-3-3-3-3-3-4-4---4-4---5-5-----5---] x2 with distortion
5]-2-2-2-2-2-2-1-1-1-1-1-1-4-4-----4---3-3---------]
6]-0-0-0-0-0-0-------------2-2---------------------]
VERSE/CHORUS
1]-------------------------------------------------]
2]-------------------------------------------------]
3]-2-x-2-x-x-x-2-x-2-x-x-x-2-x-2-x-x-x-2-x-2-x-x-x-]
4]-2-x-2-x-x-x-2-x-2-x-x-x-2-x-2-x-x-x-2-x-2-x-x-x-] x1
5]-2-x-2-x-x-x-2-x-2-x-x-x-2-x-2-x-x-x-2-x-2-x-x-x-]
6]-0-x-0-x-x-x-0-x-0-x-x-x-0-x-0-x-x-x-0-x-0-x-x-x-]
1]-------------------------]
2]-------------------------]
3]-2-x-2-x-x-x-2-x-2-x-x-x-]
4]-2-x-2-x-x-x-2-x-2-x-x-x-] x1
5]-2-x-2-x-x-x-2-x-2-x-x-x-]
6]-0-x-0-x-x-x-0-x-0-x-x-x-]
1]-------------------------------------------------]
2]-2-2-2-2-2-2-2-2-2-2-2-2-2-2-2-2-2-2-2-2-2-2-2-2-]
3]-2-2-2-2-2-2-2-2-2-2-2-2-2-2-2-2-2-2-2-2-2-2-2-2-]
4]-2-2-2-2-2-2-2-2-2-2-2-2-2-2-2-2-2-2-2-2-2-2-2-2-] x1 with distortion
5]-0-0-0-0-0-0-0-0-0-0-0-0-0-0-0-0-0-0-0-0-0-0-0-0-]
6]-------------------------------------------------]
1]-----------------------------------1-------------]
2]-----------------------------------------5-----5-]
3]-2-2-2-2-2-2-3-3-3-3-3-3-----3-------5-5---5-----]
4]-2-2-2-2-2-2-3-3-3-3-3-3-4-4---4-4---5-5-----5---] x2 with distortion
5]-2-2-2-2-2-2-1-1-1-1-1-1-4-4-----4---3-3---------]
6]-0-0-0-0-0-0-------------2-2---------------------]
VERSE/CHORUS
1]-------------------------------------------------]
2]-------------------------------------------------]
3]-2-x-2-x-x-x-2-x-2-x-x-x-2-x-2-x-x-x-2-x-2-x-x-x-]
4]-2-x-2-x-x-x-2-x-2-x-x-x-2-x-2-x-x-x-2-x-2-x-x-x-] x2
5]-2-x-2-x-x-x-2-x-2-x-x-x-2-x-2-x-x-x-2-x-2-x-x-x-]
6]-0-x-0-x-x-x-0-x-0-x-x-x-0-x-0-x-x-x-0-x-0-x-x-x-]
1]-------------]
2]-------------]
3]-2-x-2-x-x-x-]
4]-2-x-2-x-x-x-] x1
5]-2-x-2-x-x-x-]
6]-0-x-0-x-x-x-]
1]-------------]
2]-2-2-2-2-2-2-]
3]-2-2-2-2-2-2-]
4]-2-2-2-2-2-2-] x1 with distortion
5]-0-0-0-0-0-0-]
6]-------------]
1]-----------------------------------1-------------]
2]-----------------------------------------5-----5-]
3]-2-2-2-2-2-2-3-3-3-3-3-3-----3-------5-5---5-----]
4]-2-2-2-2-2-2-3-3-3-3-3-3-4-4---4-4---5-5-----5---] x2 with distortion
5]-2-2-2-2-2-2-1-1-1-1-1-1-4-4-----4---3-3---------]
6]-0-0-0-0-0-0-------------2-2---------------------]
INTERLUDE
Guitar 1 plays this
1]-------------------------------------------------]
2]-------------------------------------------------]
3]-2-x-2-x-x-x-2-x-2-x-x-x-2-x-2-x-x-x-2-x-2-x-x-x-]
4]-2-x-2-x-x-x-2-x-2-x-x-x-2-x-2-x-x-x-2-x-2-x-x-x-] x1
5]-2-x-2-x-x-x-2-x-2-x-x-x-2-x-2-x-x-x-2-x-2-x-x-x-]
6]-0-x-0-x-x-x-0-x-0-x-x-x-0-x-0-x-x-x-0-x-0-x-x-x-]
while Guitar 2 plays this
1]---------------]
2]---------------]
3]---0-------2-2-]
4]-2---2-0-0-----] x4 with distortion
5]---------------]
6]---------------]
Guitar 1
1]-----------------------------------1-------------]
2]-----------------------------------------5-----5-]
3]-2-2-2-2-2-2-3-3-3-3-3-3-----3-------5-5---5-----]
4]-2-2-2-2-2-2-3-3-3-3-3-3-4-4---4-4---5-5-----5---] x1 with distortion
5]-2-2-2-2-2-2-1-1-1-1-1-1-4-4-----4---3-3---------]
6]-0-0-0-0-0-0-------------2-2---------------------]
Guitar 2
1]-------------------------------------------------]
2]-------------11----------------------13----------]
3]-------------------------------------------------]
4]-2/---------------------4/-----------------------] x1 with distortion
5]-------------------------------------------------]
6]-------------------------------------------------]
Guitar 1
1]-------------------------------------------------]
2]-------------------------------------------------]
3]-2-x-2-x-x-x-2-x-2-x-x-x-2-x-2-x-x-x-2-x-2-x-x-x-]
4]-2-x-2-x-x-x-2-x-2-x-x-x-2-x-2-x-x-x-2-x-2-x-x-x-] x1
5]-2-x-2-x-x-x-2-x-2-x-x-x-2-x-2-x-x-x-2-x-2-x-x-x-]
6]-0-x-0-x-x-x-0-x-0-x-x-x-0-x-0-x-x-x-0-x-0-x-x-x-]
Guitar 2
1]------)---------)--------------------------]
2]-16-16--16-14-16--16\15\14\13\12 fade out.-]
3]-------------------------------------------]
4]-------------------------------------------] x1 with distortion
5]-------------------------------------------]
6]-------------------------------------------]
VERSE/CHORUS
1]-------------------------]
2]-------------------------]
3]-2-x-2-x-x-x-2-x-2-x-x-x-]
4]-2-x-2-x-x-x-2-x-2-x-x-x-] x1
5]-2-x-2-x-x-x-2-x-2-x-x-x-]
6]-0-x-0-x-x-x-0-x-0-x-x-x-]
1]-------------------------------------------------]
2]-2-2-2-2-2-2-2-2-2-2-2-2-2-2-2-2-2-2-2-2-2-2-2-2-]
3]-2-2-2-2-2-2-2-2-2-2-2-2-2-2-2-2-2-2-2-2-2-2-2-2-]
4]-2-2-2-2-2-2-2-2-2-2-2-2-2-2-2-2-2-2-2-2-2-2-2-2-] x1 with distortion
5]-0-0-0-0-0-0-0-0-0-0-0-0-0-0-0-0-0-0-0-0-0-0-0-0-]
6]-------------------------------------------------]
1]-----------------------------------1-------------]
2]-----------------------------------------5-----5-]
3]-2-2-2-2-2-2-3-3-3-3-3-3-----3-------5-5---5-----]
4]-2-2-2-2-2-2-3-3-3-3-3-3-4-4---4-4---5-5-----5---] x2 with distortion
5]-2-2-2-2-2-2-1-1-1-1-1-1-4-4-----4---3-3---------]
6]-0-0-0-0-0-0-------------2-2---------------------]
OUTRO
Guitar 1
1]---------------------------------------]
2]---------------------------------------]
3]-2-x-2-x-x-x-2-x-2-x-x-x-2-x-2-x-x-x-2-]
4]-2-x-2-x-x-x-2-x-2-x-x-x-2-x-2-x-x-x-2-] x1
5]-2-x-2-x-x-x-2-x-2-x-x-x-2-x-2-x-x-x-2-]
6]-0-x-0-x-x-x-0-x-0-x-x-x-0-x-0-x-x-x-0-]
Guitar 2
1]---------------------------------------]
2]---------------------------------------]
3]-2-x-2-x-x-x-2-x-2-x-x-x-2-x-2-x-x-x-2-]
4]-2-x-2-x-x-x-2-x-2-x-x-x-2-x-2-x-x-x-2-] x1 with distortion
5]-2-x-2-x-x-x-2-x-2-x-x-x-2-x-2-x-x-x-2-]
6]-0-x-0-x-x-x-0-x-0-x-x-x-0-x-0-x-x-x-0-]
----------------------------------------------------------------------------
SOFTER, SOFTEST - played clean unless noted
VERSE
1]---------------------------------------------------------------]
2]-3-------3-------3-------3-----------3-3-3-3---3-------3-------]
3]-0-------0-------0-------0-----------0-0-0-0---0-------0-------]
4]-0-------0-------0-------0-------2-2-2-2-2-2---0-------0-------] x1
5]-2-------2-------2-------2-------3-3-3-3-3-3---2-------2-------]
6]-3-3-3-0-3-3-3-0-3-3-3-0-3-3-3-0-3-3---------0-3-3-3-0-3-3-3-0-]
1]-----------------------------------------------------------]
2]-3-------3-------3-------3-----------3-3-3-3---3-3-3-3-3-3-]
3]-0-------0-------0-------0-----------0-0-0-0---0-0-0-0-0-0-]
4]-0-------0-------0-------0-------2-2-2-2-2-2---0-0-0-0-0-0-] x1
5]-2-------2-------2-------2-------3-3-3-3-3-3---2-2-2-2-2-2-]
6]-3-3-3-0-3-3-3-0-3-3-3-0-3-3-3-0-3-3---------0-3-3-3-3-3-3-]
CHORUS
1]-------0-0-0-----3-3-3-3-]
2]-2-2-2-1-1-1-----0-0-0-0-]
3]-2-2-2-0-0-0-----0-0-0-0-]
4]-2-2-2-2-2-2-0-0-0-0-0-0-] x5
5]-0-0-0-3-3-3-2-2-2-2-2-2-]
6]-------------3-3---------]
1]-------------3-------3-------]
2]-2-2-2-0-0-0-0-------0-------]
3]-2-2-2-0-0-0-0-------0-------]
4]-2-2-2-2-2-2-0-------0-------] x1
5]-0-0-0-3-3-3-2-------2-------]
6]-------------3-3-3-0-3-3-3-0-]
VERSE
1]---------------------------------------------------------------]
2]-3-------3-------3-------3-----------3-3-3-3---3-------3-------]
3]-0-------0-------0-------0-----------0-0-0-0---0-------0-------]
4]-0-------0-------0-------0-------2-2-2-2-2-2---0-------0-------] x1
5]-2-------2-------2-------2-------3-3-3-3-3-3---2-------2-------]
6]-3-3-3-0-3-3-3-0-3-3-3-0-3-3-3-0-3-3---------0-3-3-3-0-3-3-3-0-]
1]-----------------------------------------------------------]
2]-3-------3-------3-------3-----------3-3-3-3---3-3-3-3-3-3-]
3]-0-------0-------0-------0-----------0-0-0-0---0-0-0-0-0-0-]
4]-0-------0-------0-------0-------2-2-2-2-2-2---0-0-0-0-0-0-] x1
5]-2-------2-------2-------2-------3-3-3-3-3-3---2-2-2-2-2-2-]
6]-3-3-3-0-3-3-3-0-3-3-3-0-3-3-3-0-3-3---------0-3-3-3-3-3-3-]
CHORUS
1]-------0-0-0-----3-3-3-3-]
2]-2-2-2-1-1-1-----0-0-0-0-]
3]-2-2-2-0-0-0-----0-0-0-0-]
4]-2-2-2-2-2-2-0-0-0-0-0-0-] x5
5]-0-0-0-3-3-3-2-2-2-2-2-2-]
6]-------------3-3---------]
1]-------0-0-0-3-------3-------]
2]-2-2-2-1-1-1-0-------0-------]
3]-2-2-2-0-0-0-0-------0-------]
4]-2-2-2-2-2-2-0-------0-------] x1
5]-0-0-0-3-3-3-2-------2-------]
6]-------------3-3-3-0-3-3-3-0-]
BRIDGE
1]-/2-2-2-0-0-0-3-------3-------]
2]-/3-3-3-1-1-1-0-------0-------]
3]-/2-2-2-0-0-0-0-------0-------]
4]--------2-2-2-0-------0-------] x1
5]--------3-3-3-2-------2-------]
6]--------------3-3-3-0-3-3-3-0-]
1]-/2-2-2-0-0-0-]
2]-/3-3-3-1-1-1-]
3]-/2-2-2-0-0-0-]
4]--------2-2-2-] x1
5]--------3-3-3-]
6]--------------]
1]-3-3-3-3-3-3-3-3-3-3-3-3-3-3-3-3-]
2]-0-0-0-0-0-0-0-0-0-0-0-0-0-0-0-0-]
3]-0-0-0-0-0-0-0-0-0-0-0-0-0-0-0-0-]
4]-0-0-0-0-0-0-0-0-0-0-0-0-0-0-0-0-] x1 with distortion
5]-2-2-2-2-2-2-2-2-2-2-2-2-2-2-2-2-]
6]-3-3-3-3-3-3-3-3-3-3-3-3-3-3-3-3-]
CHORUS
1]-------0-0-0-----3-3-3-3-]
2]-2-2-2-1-1-1-----0-0-0-0-]
3]-2-2-2-0-0-0-----0-0-0-0-]
4]-2-2-2-2-2-2-0-0-0-0-0-0-] x8 with distortion
5]-0-0-0-3-3-3-2-2-2-2-2-2-]
6]-------------3-3---------]
1]-------0-0-0-3-]
2]-2-2-2-1-1-1-0-]
3]-2-2-2-0-0-0-0-]
4]-2-2-2-2-2-2-0-] x1 with distortion let ring
5]-0-0-0-3-3-3-2-]
6]-------------3-]
1]-3-3-3-------0-0-0-3-3-3-3-3-]
2]-0-0-0-2-2-2-1-1-1-0-0-0-0-0-]
3]-0-0-0-2-2-2-0-0-0-0-0-0-0-0-]
4]-0-0-0-2-2-2-2-2-2-0-0-0-0-0-] x1
5]-2-2-2-0-0-0-3-3-3-2-2-2-2-2-]
6]-3-3-3-------------3-3-3-3-3-]
1]-------0-0-0-3-]
2]-2-2-2-1-1-1-0-]
3]-2-2-2-0-0-0-0-]
4]-2-2-2-2-2-2-0-] x1
5]-0-0-0-3-3-3-2-]
6]-------------3-]
---------------------------------------------------------------------------
SHE WALKS ON ME - played with distortion
INTRO/PRE-VERSE
1]---------------]
2]----------)----]
3]---------7-7-7-]
4]-3/5-5-5-------] x3
5]---------------]
6]---------------]
1]-----------------------------------------------------------------------]
2]-----------------------------------------------------------------------]
3]-5-5-5-5-6-6-6-6-7-7-7-7-8-8-8-8-9-9-9-9-10-10-10-10-11-11-11-11-12-12-]
4]-----------------------------------------------------------------------]
5]-----------------------------------------------------------------------]
6]-----------------------------------------------------------------------]
VERSE
1]-------------------------------]
2]-------------------------------]
3]-------8-8-8-8-7-7-7-7-4-4-4-4-]
4]-7-7-7-8-8-8-8-7-7-7-7-4-4-4-4-] x16
5]-7-7-7-6-6-6-6-5-5-5-5-2-2-2-2-]
6]-5-5-5-------------------------]
CHORUS
1]---------------------------------]
2]---------------------------------]
3]-----------------5-5-5-5-5-5-5-5-]
4]-7-7-7-7-7-7-7-7-5-5-5-5-5-5-5-5-] x4
5]-7-7-7-7-7-7-7-7-3-3-3-3-3-3-3-3-]
6]-5-5-5-5-5-5-5-5-----------------]
VERSE
1]-------------------------------]
2]-------------------------------]
3]-------8-8-8-8-7-7-7-7-4-4-4-4-]
4]-7-7-7-8-8-8-8-7-7-7-7-4-4-4-4-] x10
5]-7-7-7-6-6-6-6-5-5-5-5-2-2-2-2-]
6]-5-5-5-------------------------]
CHORUS
1]---------------------------------]
2]---------------------------------]
3]-----------------5-5-5-5-5-5-5-5-]
4]-7-7-7-7-7-7-7-7-5-5-5-5-5-5-5-5-] x4
5]-7-7-7-7-7-7-7-7-3-3-3-3-3-3-3-3-]
6]-5-5-5-5-5-5-5-5-----------------]
PRE-VERSE
1]---------------]
2]----------)----]
3]---------7-7-7-]
4]-3/5-5-5-------] x3
5]---------------]
6]---------------]
1]-----------------------------------------------------------------------]
2]-----------------------------------------------------------------------]
3]-5-5-5-5-6-6-6-6-7-7-7-7-8-8-8-8-9-9-9-9-10-10-10-10-11-11-11-11-12-12-]
4]-----------------------------------------------------------------------]
5]-----------------------------------------------------------------------]
6]-----------------------------------------------------------------------]
VERSE
1]-------------------------------]
2]-------------------------------]
3]-------8-8-8-8-7-7-7-7-4-4-4-4-]
4]-7-7-7-8-8-8-8-7-7-7-7-4-4-4-4-] x10
5]-7-7-7-6-6-6-6-5-5-5-5-2-2-2-2-]
6]-5-5-5-------------------------]
1]---]
2]---]
3]---]
4]-7-]
5]-7-]
6]-5-]
---------------------------------------------------------------------------
I THINK THAT I WOULD DIE - played clean unless noted
VERSE
1]-------------------]
2]-------------------]
3]-------------0-----]
4]-----0-----0-------] x4
5]---1---0-2---------]
6]-0-------------0-3-]
CHORUS
1]-------------------------]
2]-------------------------]
3]-3-3-3-4-4-4-------------]
4]-3-3-3-4-4-4-5-5-5-5-5-5-] x5
5]-1-1-1-2-2-2-5-5-5-5-5-5-]
6]-------------3-3-3-3-3-3-]
1]-1-1-1---------------0-0-0-0-]
2]-3-3-3---------------1-1-1-1-]
3]-2-2-2-3-3-3-3-------0-0-0-0-]
4]-------3-3-3-3-3-3-3-2-2-2-2-] x4
5]-------1-1-1-1-3-3-3-3-3-3-3-]
6]---------------------0-0-0-0-]
VERSE
1]-------------------]
2]-------------------]
3]-------------0-----]
4]-----0-----0-------] x4
5]---1---0-2---------]
6]-0-------------0-3-]
CHORUS
1]-------------------------]
2]-------------------------]
3]-3-3-3-4-4-4-------------]
4]-3-3-3-4-4-4-5-5-5-5-5-5-] x5
5]-1-1-1-2-2-2-5-5-5-5-5-5-]
6]-------------3-3-3-3-3-3-]
1]---------------]
2]---------------]
3]-3-3-3-4-4-4---]
4]-3-3-3-4-4-4-5-] x5 with distortion
5]-1-1-1-2-2-2-5-]
6]-------------3-]
1]-1-1-1---------------0-0-0-0-]
2]-3-3-3---------------1-1-1-1-]
3]-2-2-2-3-3-3-3-------0-0-0-0-]
4]-------3-3-3-3-3-3-3-2-2-2-2-] x4
5]-------1-1-1-1-3-3-3-3-3-3-3-]
6]---------------------0-0-0-0-]
INTERLUDE
GUITAR 1 plays this
1]-1-1-1---------------0-0-0-0-]
2]-3-3-3---------------1-1-1-1-]
3]-2-2-2-3-3-3-3-------0-0-0-0-]
4]-------3-3-3-3-3-3-3-2-2-2-2-] x1
5]-------1-1-1-1-3-3-3-3-3-3-3-]
6]---------------------0-0-0-0-]
GUITAR 2 plays this underneath
1]-----0-----------------------]
2]---6-----6---------6---------]
3]-7---------7-----7------9--9-]
4]-0-----8-----8-8-----8-10-10-] x1
5]---------------8-------10-10-]
6]------------------------8--8-]
CHORUS
1]-------------------------]
2]-------------------------]
3]-3-3-3-4-4-4-------------]
4]-3-3-3-4-4-4-5-5-5-5-5-5-] x5
5]-1-1-1-2-2-2-5-5-5-5-5-5-]
6]-------------3-3-3-3-3-3-]
BRIDGE
1]---]
2]---]
3]---]
4]-5-] x8
5]-5-]
6]-3-]
1]---------]
2]---------]
3]---------]
4]-----0---] x4
5]---1---2-]
6]-0-------]
CHORUS
1]-------------------------]
2]-------------------------]
3]-3-3-3-4-4-4-------------]
4]-3-3-3-4-4-4-5-5-5-5-5-5-] x5
5]-1-1-1-2-2-2-5-5-5-5-5-5-]
6]-------------3-3-3-3-3-3-]
OUTRO
Just arpeggieate the chorus chords.
---------------------------------------------------------------------------
GUTLESS - played with distortion unless noted
Guitar 1 plays entire riff once, and when you see a "*", guitar 2 plays
joins in and plays that part clean. After that, both guitars play entire
riff with distortion and guitar 2 plays the "*" part clean too.
INTRO/VERSE
1]---------------------------------------------------*3-3-3-3-3*-]
2]-2-2-----------------2-2-2-2-2-2-2-----------------*0-0-0-0-0*-]
3]-2-2-3-3-------------2-2-2-2-2-2-2-3-3-------------*0-0-0-0-0*-]
4]-2-2-3-3-3-3-3-3-3-3-2-2-2-2-2-2-2-3-3-3-3-3-3-3-3-*0-0-0-0-0*-] x6
5]-0-0-1-1-3-3-3-3-3-3-0-0-0-0-0-0-0-1-1-3-3-3-3-3-3-*2-2-2-2-2*-]
6]---------1-1-0-1-0-0-------------------1-1-0-1-0-0-*3-3-3-3-3*-]
CHORUS
1]---------------]
2]-2-2-----------]
3]-2-2-----------]
4]-2-2-3-3-3-3-3-] x3
5]-0-0-3-3-3-3-3-]
6]-----1-1-1-1-1-]
1]---3---3-3-]
2]-2-0-2-0-0-]
3]-2-0-2-0-0-]
4]-2-0-2-0-0-] x1
5]-0-2-0-2-2-]
6]---3---3-3-]
1]---------------]
2]-2-2-----------]
3]-2-2-----------]
4]-2-2-3-3-3-3-3-] x3
5]-0-0-3-3-3-3-3-]
6]-----1-1-1-1-1-]
1]---3---3-3-]
2]-2-0-2-0-0-]
3]-2-0-2-0-0-]
4]-2-0-2-0-0-] x1
5]-0-2-0-2-2-]
6]---3---3-3-]
VERSE
1]---------------------------------------------------*3-3-3-3-3*-]
2]-2-2-----------------2-2-2-2-2-2-2-----------------*0-0-0-0-0*-]
3]-2-2-3-3-------------2-2-2-2-2-2-2-3-3-------------*0-0-0-0-0*-]
4]-2-2-3-3-3-3-3-3-3-3-2-2-2-2-2-2-2-3-3-3-3-3-3-3-3-*0-0-0-0-0*-] x4
5]-0-0-1-1-3-3-3-3-3-3-0-0-0-0-0-0-0-1-1-3-3-3-3-3-3-*2-2-2-2-2*-]
6]---------1-1-0-1-0-0-------------------1-1-0-1-0-0-*3-3-3-3-3*-]
CHORUS
1]---------------]
2]-2-2-----------]
3]-2-2-----------]
4]-2-2-3-3-3-3-3-] x3
5]-0-0-3-3-3-3-3-]
6]-----1-1-1-1-1-]
1]---3---3-3-]
2]-2-0-2-0-0-]
3]-2-0-2-0-0-]
4]-2-0-2-0-0-] x1
5]-0-2-0-2-2-]
6]---3---3-3-]
1]---------------]
2]-2-2-----------]
3]-2-2-----------]
4]-2-2-3-3-3-3-3-] x3
5]-0-0-3-3-3-3-3-]
6]-----1-1-1-1-1-]
1]---3---3-3-]
2]-2-0-2-0-0-]
3]-2-0-2-0-0-]
4]-2-0-2-0-0-] x1
5]-0-2-0-2-2-]
6]---3---3-3-]
BRIDGE
1]---------------------------------------------------]
2]-8-8-8-7-------------------------------------------]
3]---------7-7---------------------------------------]
4]-------------5-5-5-4-----5-5-5-4-------------------] x2
5]---------------------5-5---------5-5-4-5-----------]
6]-----------------------------------------5-5-5-5-5-]
CHORUS
1]---------------]
2]-2-2-----------]
3]-2-2-----------]
4]-2-2-3-3-3-3-3-] x3
5]-0-0-3-3-3-3-3-]
6]-----1-1-1-1-1-]
1]---3---3-3-]
2]-2-0-2-0-0-]
3]-2-0-2-0-0-]
4]-2-0-2-0-0-] x1
5]-0-2-0-2-2-]
6]---3---3-3-]
1]---------------]
2]-2-2-----------]
3]-2-2-----------]
4]-2-2-3-3-3-3-3-] x3
5]-0-0-3-3-3-3-3-]
6]-----1-1-1-1-1-]
1]---3---3-3-]
2]-2-0-2-0-0-]
3]-2-0-2-0-0-]
4]-2-0-2-0-0-] x1
5]-0-2-0-2-2-]
6]---3---3-3-]
1]---------------]
2]-2-2-----------]
3]-2-2-----------]
4]-2-2-3-3-3-3-3-] x3 Guitar 2 feeds back
5]-0-0-3-3-3-3-3-]
6]-----1-1-1-1-1-]
1]---3---3-3-]
2]-2-0-2-0-0-]
3]-2-0-2-0-0-]
4]-2-0-2-0-0-] x1
5]-0-2-0-2-2-]
6]---3---3-3-]
1]---------------]
2]-2-2-----------]
3]-2-2-----------]
4]-2-2-3-3-3-3-3-] x3
5]-0-0-3-3-3-3-3-]
6]-----1-1-1-1-1-]
1]---3---3-3-----]
2]-2-0-2-0-0-2-2-]
3]-2-0-2-0-0-2-2-]
4]-2-0-2-0-0-2-2-] x1 let last chord ring
5]-0-2-0-2-2-0-0-]
6]---3---3-3-----]
---------------------------------------------------------------------------
ROCK STAR - clean unless noted
INTRO
1]-----]
2]-----]
3]-9-9-]
4]-9-9-] x2
5]-7-7-]
6]-----]
1]---]
2]---]
3]---]
4]---] x1 let ring and roll volume knob up.
5]---]
6]-0-]
VERSE
1]---------*---------------------------------]
2]---------*---------------------------------]
3]-9-9-----*---------------------------------]
4]-9-9-9-9-*-7-7-7-7-7-7-7-7-7-7-7-7-7-7-7-7-] x1 * = turn on distortion
5]-7-7-9-9-*-7-7-7-7-7-7-7-7-7-7-7-7-7-7-7-7-] and guitar 2 joins in
6]-----7-7-*-5-5-5-5-5-5-5-5-5-5-5-5-5-5-5-5-] also with distortion
1]-----------------------------------------]
2]-----------------------------------------]
3]-9-9-------------------------------------]
4]-9-9-9-9-7-7-7-7-7-7-7-7-7-7-7-7-7-7-7-7-] x3 with distortion
5]-7-7-9-9-7-7-7-7-7-7-7-7-7-7-7-7-7-7-7-7-]
6]-----7-7-5-5-5-5-5-5-5-5-5-5-5-5-5-5-5-5-]
CHORUS
1]-----------------------------------]
2]-----------------------------------]
3]-9-9-x-x-x-x-----------------------]
4]-9-9-x-x-x-x-9-9-10-10-x-x-x-x-7-7-] x4 with distortion
5]-7-7-x-x-x-x-9-9-10-10-x-x-x-x-7-7-]
6]-------------7-7--8--8-x-x-x-x-5-5-]
VERSE
1]-----------------------------------------]
2]-----------------------------------------]
3]-9-9-------------------------------------]
4]-9-9-9-9-7-7-7-7-7-7-7-7-7-7-7-7-7-7-7-7-] x4 with distortion
5]-7-7-9-9-7-7-7-7-7-7-7-7-7-7-7-7-7-7-7-7-]
6]-----7-7-5-5-5-5-5-5-5-5-5-5-5-5-5-5-5-5-]
CHORUS
1]-----------------------------------]
2]-----------------------------------]
3]-9-9-x-x-x-x-----------------------]
4]-9-9-x-x-x-x-9-9-10-10-x-x-x-x-7-7-] x4 with distortion
5]-7-7-x-x-x-x-9-9-10-10-x-x-x-x-7-7-]
6]-------------7-7--8--8-x-x-x-x-5-5-]
OUTRO
1]----------------------------------------------]
2]----------------------------------------------]
3]-9-9-9-9-9------------------------------------]
4]-9-9-9-9-9-9-9-9-9-9-10-10-10-10-10-7-7-7-7-7-] x8 with distortion
5]-7-7-7-7-7-9-9-9-9-9-10-10-10-10-10-7-7-7-7-7-]
6]-----------7-7-7-7-7--8--8--8--8--8-5-5-5-5-5-]
1]-----]
2]-----]
3]-9-9-]
4]-9-9-] x1 with distortion
5]-7-7-]
6]-----]
Then there is that stupid ending where they start playing again
1]-----------------------------------------]
2]-----------------------------------------]
3]-9-9-------------------------------------]
4]-9-9-9-9-7-7-7-7-7-7-7-7-7-7-7-7-7-7-7-7-] x1 with distortion and lots of
5]-7-7-9-9-7-7-7-7-7-7-7-7-7-7-7-7-7-7-7-7-] feedback and noise.
6]-----7-7-5-5-5-5-5-5-5-5-5-5-5-5-5-5-5-5-]
---------------------------------------------------------------------------
That's it! If you have any questions or comments, feel free to Email me at:
[email protected] (Jonathan Aiyadurai)


Ваше мнение



Капча