HOLE
JENNIFER'S BODY
Bass
Transcribed by Gianni
Verse:
G----------------------------------------------|
D----------------------------------------------| (2x)
A------------------5-5-5-2-2-2-----------------|
E---0-0-0-3-3-3--------------------------------|
G----------------------------------------------|
D----------------------------------------------|
A------------------------5-5-5-5-2-2-2-2-------|
E---0--0-0-2-3-3-3-2---------------------------|
Chorus:
G----------------------------------------------|
D----------------------------------------------|
A--------2-2-0-0-0-0---2-2---------------------|
E--0-0-----------------------------0-----------|
G----------------------------------------------|
D---4-0-0-0------------------------------------|
A---------------4-2---------0-0----------------|
E---------------------2-3----------------------|





Ваше мнение



Капча