HOLE
I THINK I WOULD DIE
Bass
Transcribed by Stephanie Rovera
Verse: (Guitar)
G-------------------0----------------------|
D-------0--------0-------------------------| (3x)
A----1-----0--2----------------------------|
E-0--------------------0--3----------------|
G-------------------0-----------0----0--0--0--|
D-------0--------0--------------0----0--0--0--| (1x)
A----1-----0--2--------2--------2----2--2--2--|
E-0-----------------------3-----0----0--0--0--|
Chorus:
G--------------------------------|
D--------------------------------|
A--1-1-1--2-2-2------------------|
E----------------3-0-3-0-3-0-----|
Chorus II:
G--------------------------------|
D--------------------------------|
A--8-8-8--8--7-------------------|
E----------------8-7-------------|





Ваше мнение



Капча