HOLE
HE HIT ME (AND IT FELT LIKE A KISS)
Bass
Transcribed by Larissa Coolette
Riff A:
G------------|---------|
D------------|---------|
A------------|---------|
E-3--3--3-3--|-3-3-5-5-|
Riff B:
G-----------|----------|----------|----------|----------|----------|----------|
D-----------|----------|----------|----------|----------|----------|----------|
A--5-5-5-5--|-5-5-5-5--|----------|----------|----------|-2-2-2-2--|----------|
E-----------|----------|-3-3-3-3--|-5-5-5-5--|-2-2-2-2--|----------|-3-3-3-3--|
B1 B2
G-------------| |-----------| *~* The first time ONLY play (B1)
D-------------| |-----------| Play (B2) for the rest of the
A-------------| |-----------| song. *~*
E--2-2-2-2----| |3-3-2-2----|
G-------------|-----------|
D-------------|-----------|
A--2-2-2-2----|-2-2-2-2---|
E-------------|-----------|
Riff C:
G------------|-----------|
D------------|-----------|
A--2-2-2-2---|--2-2-4-4--|
E------------|-----------|
Riff D:
G-------------------|
D-------------------|
A-------------------|
E--2-2-2-2-2-2-2-2--|
SONG FORMAT:
A (x7)
B-C (x4)
D-A (x5)
B-C (Play for the rest of the song)





Ваше мнение



Капча