e: Thu, 26 Mar 1998 22:54:42 -0600 (CST)
From: [email protected]
Subject: Tab "gold dust woman" by "hole"
I've seen this tab around but decided to clean it up a bit since a lot is
normally left out.
HOLE-"GOLD DUST WOMAN"
gold dust woman is in dropped D tuning
tuning: D A D G B E
This is the intro - taken from a bass to a guitar
E------------------------------------
B------------------------------------
G------------------------------------ * 3
D------------------------------------
A------------------------------------
D-------0---0---0---0---0-2-3--2--0--
lead into verse *3
E------------------------------------| ------0-----|--0--0--0---0-0-0-|
B------------------------------------| ------3-----|--3--3--3---3-3-3-|
G------------------------------------| ------2-----|--2--3--3---3-3-3-|
D------------------------------------| ---0--0-----|--0--0--0---0-0-0-|
A------------------------------------| ---0--0-----|--0--0--0---0-0-0-|
D-------0---0---0---0---3---3---3---3| ---0--0-----|--0--0--0---0-0-0-|
E-----0------|--0----1-1-1-1-1-1-1-1-|
B-----3------|--3----3-3-3-3-3-3-3-3-|
G-----2------|--2----3-3-3-3-3-3-3-3-|
D--0--0------|--0----3-3-3-3-3-3-3-3-|
A--0--0------|--0----1-1-1-1-1-1-1-1-|
D--0--0------|--0----1-1-1-1-1-1-1-1-|
verse:
E-----0----|--0--|--0--|--0--|-----0--|--0--0-0---0-0-0-|-----0--|----|
B-----3----|--3--|--3--|--3--|-----3--|--3--3-3---3-3-3-|-----3--|----|
G-----2----|--0--|--0--|--0--|-----2--|--2--3-3---3-3-3-|-----2--|----|
D-----0----|--0--|--2--|--0--|--0--0--|--0--0-0---0-0-0-|--0--0--|----|
A-----0----|--2--|--3--|--2--|--0--0--|--0--0-0---0-0-0-|--0--0--|----|
D-----0----|--0--|--0--|--0--|--0--0--|--0--0-0---0-0-0-|--0--0--|----|
chorus: eight notes strummed hard
E-----1--|--0--|--0--|--0--
B-----3--|--3--|--3--|--3--
G-----3--|--0--|--0--|--2--
D-----3--|--0--|--2--|--0--
A-----1--|--2--|--3--|--0--
D-----1--|--0--|--0--|--0--
back to pre verse lead in
this is really a kickass song so set all the gain you can find to ten
with as much power as you can push and wail-even though i learned it on
acoustic-all credit to stevie nicks!
Jon
[email protected]





Ваше мнение



Капча