From: Richard Cooper
*******************************************************************
Tab for : GARBAGE MAN
by : HOLE
Song no. 3 off the "PRETTY ON THE INSIDE" Album
date : 15/2/95
tabbed by : RICHARD COOPER
Kingston University
England
([email protected])
Came across this completely by mistake while trying to write a chorus
to one of my bands songs.......
This is only my second attempt at tabbing anything so allow for mistakes
I've tried to indicate timing a bit, but you'll still need to listen to the
song, quite easy though.
oh yeah, i used tabedit 1.6.3beta by Danny Felsteiner.....thanks Danny!
Feel free to mail me about this tab or just about anything.
oh well, here goes:
E-|---------------------------------------------------------------------------|
B-|---------------------------------------------------------------------------|
G-|---9------9------9\-5--5-5-5-5-5-5-5-5-------------------------------------|
D-|---9------9------9\-5--5-5-5-5-5-5-5-5-------5--------5--5\--2..-stuff-----|
A-|---7------7------7\-3--3-3-3-3-3-3-3-3-------5--------5--5\--2..--i-dont---|
E-|---------------------------------------------3--------3--3\--0..---know----|
MAIN VERSE
E-|---------------------------------------------------------------------------|
B-|---------------------------------------------------------------------------|
G-|-7/-9-x-9-x-9-x-9-x...........-x-9-x-9-x-5-5-5-5-5-5-----------------------|
D-|-7/-9-x-9-x-9-x-9-x...........-x-9-x-9-x-5-5-5-5-5-5-----------------------|
A-|-5/-7-x-7-x-7-x-7-x...........-x-7-x-7-x-3-3-3-3-3-3-----------------------|
E-|---------------------------------------------------------------------------|
"without, without a doubt" riff
__________________________________________________________________________





Ваше мнение



Капча