t. See http://www.olga.net/faq/ for more information. #
From: "Candy Darling"
Subject: h/hole/dying.tab
Date: Tue, 16 Mar 1999 08:30:06 PST
Dying
HOLE
intro:
B G D
1:-------------------------------
2:---------------------------2---
3:---------4--------------3------
4:-----4-------------0-----------
5:--2-------------5--------------
6:-------------3-----------------
verse:
pre-chorus
Bm G D A
1:------------------------------------------- -----------
2:--------3------------3--------2---------2-- ----------
3:--------4------------0-----3----3----3-----3 ------2---- >replaces
4:-----4-----4------------0------------------ ----2---2-- part on
5:--2---------------2------------------------ --0-------- D in the
6:---------------3---------------------------- ---------- verse
chorus:
transition
Bm G D Bm A
1:----------------------------------- --------------
2:--------3----------3------2----3--3 ---2--2--2--2- >replaces 2nd
3:--------4----------0----3---3--4--4 ---2--2--2--2- Bm in last bar
4:-----4-----4---------0---------4--4 ---0--0--0--0- of chorus 3/4
5:--2-------------2--------------2--2 --------------
6:--------------3-------------------- --------------
bridge part 1:
D C# G
bridge part 2:
Bm G D A
1:------------------------------------------
2:-------3----------3---------2-------------
3:-------4----------0------3----3--------2-
4:----4-----4-----------0-------------2----2
5:--2------------2-----------------0--------
6:-------------3----------------------------





Ваше мнение



Капча