dying - hole
track 6 off celebrity skin

this is very roughly done and may even be wrong..correction are
more than welcome.

intro/verses

B5 G5 D5
|----------------------|
|---------------3---3--|
|-----4-------0-2-2----|
|---4---4---0---0------|
|-2--------------------|
|---------3------------|

for intro, B5 is used. for verses Bm is used.

verse to chorus

D5 B5
|-------------------|
|-3-3-3-3-----------|
|-2-2-2-2--4-4-4-4--|
|-0-0-0-0--4-4-4-4--|
|----------2-2-2-2--|
|-------------------|

chorus

B5 B/A B/G B/E D5 B5
|-----------------------------|
|--------------3-3-3----------|
|-4-4-4-4-4-4--2-2-2-4-4-4-4--|
|-4-4-4-4-4-4--0-0-0-4-4-4-4--|
|-2-2-0-0------------2-2-2-2--|
|---------3-0-----------------|

bridge

D5 D/C# E5 G5
|---------------------|
|---------------------|
|-7-7-7-7-------0-0---|
|-7-7-7-7-------0-0---|
|-5-5-4-4-2-2-2-------|
|---------0-0-0-3-3---|





Ваше мнение



Капча