Song: Celebrity Skin
Artist: Hole
Album: Celebrity Skin
Tuning: D, A, D, G, B, E
Transcriber: Arturo Diaz ([email protected])
INTRO (4x)
E--------------------------------
B--------------------------------
G--------------------------------
D----7-7----11-11----4-4---------
A----7-7----11-11----4-4---------
D----7-7----11-11----4-4---------
VERSE (1x)
E-----------------------------------------------------------------------------------
B-----------------------------------------------------------------------------------
G-----------------------------------------------------------------------------------
D-12-12-12-12-12-12-12-12--7-7-7-7-7-7-7-7--12-12-12-12-12-12-12-12--7-7-7-7-7-7-7-7
A-12-12-12-12-12-12-12-12--7-7-7-7-7-7-7-7--12-12-12-12-12-12-12-12--7-7-7-7-7-7-7-7
D-12-12-12-12-12-12-12-12--7-7-7-7-7-7-7-7--12-12-12-12-12-12-12-12--7-7-7-7-7-7-7-7
E----------------------------------------------------------------------------------
B----------------------------------------------------------------------------------
G----------------------------------------------------------------------------------
D-4-4-4-4-4-4-4-4--9-9-9-9-9-9-9-9--12-12-12-12-12-12-12-12-12-12-12-12-12-12-12-12
A-4-4-4-4-4-4-4-4--9-9-9-9-9-9-9-9--12-12-12-12-12-12-12-12-12-12-12-12-12-12-12-12
D-4-4-4-4-4-4-4-4--9-9-9-9-9-9-9-9--12-12-12-12-12-12-12-12-12-12-12-12-12-12-12-12
INTRO (4x)
VERSE (1x)
VERSE 2 (4x)
Note: the fourth time you play it, put distorsion in the last notes so it can be linked to the Intro
E---------2----------2----------2----------------
B----2---3------2---3------2---3-----------------
G---2---2------2---2------2---2------------------
D--2---0------2---0------2---0----4-4-4-4-4-4-4-4
A-0----------0----------0---------4-4-4-4-4-4-4-4
D---------------------------------4-4-4-4-4-4-4-4
INTRO (4x)
VERSE 1 (1x)
VERSE 2 (4x)
INTRO (4x)
If you have any comments or suggestions, please send them to [email protected]





Ваше мнение



Капча