Hole,Celebrity Skin.
Tabbed by Sebastian Lapidus, [email protected]

Intro and Verse:
e|-------------|
B|-------------|
G|-----6-6-----| This riff has some variations through
D|-7-7-6-6-4-4-| the song. The first two times DO NOT
A|-7-7-4-4-4-4-| let ring. The 3rd time let ring but
E|-5-5-----2-2-| NOT TOO LONG. Last time let ring with a lot of vibrato, tremolo and phaser (well, it's only tremolo, but sounds better this way)
Chorus:
e|-------------------------------------------
B|-------------------------------------------
G|-7-7-7-7-7------------7-7-7-7-7------------
D|-7-7-7-7-7-7-7-7-7-7--7-7-7-7-7-7-7-7-7-7--
A|-5-5-5-5-5-7-7-7-7-7--5-5-5-5-5-7-7-7-7-7--
E|-----------5-5-5-5-5------------5-5-5-5-5--
--------------------------------|
--------------------------------|
------------4-4-4-4-4-7-7-7-7-7-|
-4-4-4-4-4--4-4-4-4-4-7-7-7-7-7-|
-4-4-4-4-4--2-2-2-2-2-5-5-5-5-5-|
-2-2-2-2-2----------------------|
Bridge:
A D F#m
e|---------------2---| 3 |--------------|
B|-----2-----------3-| T |--------------|
G|-------2-----2-----| I T |-----2------2-|
D|---2-------0-------| M H |-----2------2-|
A|-0-----------------| E E |---4------4---|
E|-------------------| S N |-2------2-----|





Ваше мнение



Капча