e: Wed, 01 Apr 1998 19:29:50 PST
From: D'ArcyZero the Goddess of Wine
Subject: TAB: Berry by Hole

Berry, from Pretty on the Inside
tabbed by D*Arcy ([email protected])
*timing shown but not too well-listen to the song*
b=bend the note or chord
Verse:
e------------------- ------------------
B------------------- ------------------
G------------------- ------------------
D-7b--2--7--2--7--2- 6x -2-2-2-2-2-2-2--9- 3x
A-7b--2--7--2--7--2- -2-2-2-2-2-2-2--9-
E-5b--0--5--0--5--0- -0-0-0-0-0-0-0--7-

-----------------------
-----------------------
----------------------- 1x
-2-2-2-2-2-2-2--4--5-5-
-2-2-2-2-2-2-2--4--5-5-
-0-0-0-0-0-0-0--2--3-3-

Chorus: 2x
e---------------------------------
B---------------------------------
G---------------------------------
D-7--7--7--7-7--5-5--2--2---5-7-5-
A-7--7--7--7-7--5-5--2--2---5-7-5-
E-5--5--5--5-5--3-3--0--0---3-5-3-

play the verse 1x

Riff 1: 4x
e---------------------
B---------------------
G---------------------
D-2-2-2-2-2--4-4-4--5-
A-2-2-2-2-2--4-4-4--5-
E-0-0-0-0-0--2-2-2--3-

verse 1x
riff 1 4x
chorus 4x

______________________________________________________
Get Your Private, Free Email at http://www.hotmail.com





Ваше мнение



Капча