-------------------------------------------------------------------------------
Be a Man- HOle
-------------------------------------------------------------------------------
Tabbed by: Salma S.
Email:[email protected]

Tuning:E B G D A E
Intro:
e|-------------------------------------------------------------------|
B|-------------------------------------------------------------------|
G|-------------------------------------------------------------------|
D|-------------------------------------------------------------------|
A|------------------------8-8-8-8------------------------------------|
E|---10-10-8-8-8-8-10-10----------10-10-8-8-8-8-7-7-6-6-6-6----------|

Verse:
e|-------------------------------------------------------------------|
B|-------------------------------------------------------------------|
G|--7-7--10-10-10-7-7-10-10-10-7-7-10-10-10-12--12--12--10-10--------|
D|--7-7--10-10-10-7-7-10-10-10-7-7-10-10-10-12--12--12--10-10--------|
A|--5-5--8--8--8--5-5-8--8--8--5-5-8--8--8--10--10--10--8--8---------|
E|-------------------------------------------------------------------|

e|-------------------------------------------------------------------|
B|-------------------------------------------------------------------|
G|-------------------------------------------------------------------|
D|-------------------------------------------------------------------|x2
A|------------------------8-8-8-8------------------------------------|
E|---10-10-8-8-8-8-10-10----------10-10-8-8-8-8-7-7-6-6-6-6----------|

Chorus:
e|------------------------------------------------------------------|
B|------------------------------------------------------------------|
G|--5--5--5-8--5--8--7----------------------------------------------|
D|--5--5--5-8--5--8--7----------------------------------------------|
A|--3--3--3-6--3--6--5----------------------------------------------|
E|------------------------------------------------------------------|

Verse

Chorus

Verse

Solo:
e|------------------------------------------------------------------|
B|------------------------------------------------------------------|
G|------------------------------------------------------------------|
D|------------------------------------------------------------------|
A|------------------------------------------10-10-------------------|
E|--5-5-5-6-6-6-6-5-5-5-7-7-7-5-5-5-8-8-8-8--------8-8-5------------|

verse

chorus

End:
Intro:
e|-------------------------------------------------------------------|
B|-------------------------------------------------------------------|
G|-------------------------------------------------------------------|
D|-------------------------------------------------------------------|
A|------------------------8-8-8-8------------------------------------|
E|---10-10-8-8-8-8-10-10----------10-10-8-8-8-8-7-7-6-6-6-6----------|

slide down
| h hammer-on
| p pull-off
| ~ vibrato
| + harmonic
| x Mute note
===============================================================================





Ваше мнение



Капча