HOLE
20 YEARS IN THE DAKOTA
Bass
Transcribed by Larissa Coolette
Riff A:
G----------|--------|--------|--------|
D----------|--------|--------|--------|
A----------|3-2-----|1-1-1-1-|2-2-2-2-|
E--3-3-3-3-|----110-|--------|--------|
Riff B:
G-----------------|----------------|-5-5-5-5-5-5-5-5|-5-5-5-5-5-5-5-5|
D--5-5-5-5-5-5-5-5|-5-5-5-5-5-5-5-5|----------------|----------------| (2x)
A-----------------|----------------|----------------|----------------|
E-----------------|----------------|----------------|----------------|
G-----------------|---------------|10-10-10-10-10-10-10-10|
D--5-5-5-5-5-5-5-5|5-5-5-5-5-5-5-5|-----------------------|
A-----------------|---------------|-----------------------|
E-----------------|---------------|-----------------------|
G--5-5-5-5-5-5-5-5|---------------|---------------|
D-----------------|5-5-5-5-5-5-5-5|5-5-5-5-5-5-5-5|
A-----------------|---------------|---------------|
E-----------------|---------------|---------------|
G--10-10-10-10-10-10-10-10|-7-7-7-7-7-7-7-7|
D-------------------------|----------------|
A-------------------------|----------------|
E-------------------------|----------------|
Riff C:
G------------------|----------------|----------------|----------------|
D------------------|----------------|----------------|----------------|
A------------------|----------------|3-3-3-3-3-3-3-3-|3-3-3-3-3-3-3-3-|
E--3-3-3-3-3-3-3-3-|3-3-3-3-3-3-3-3-|----------------|----------------|
SONG FORMAT:
A (x8)
B-C (play that for the rest of the song)





Ваше мнение



Капча