Composed by: Ville Valo
Tabulated by: Luke "Lazy Sky" Vai & The Duke
Info: Slide down
/ Slide Up
~ Vibrato
b Bend
r Relase
INTRO KEYBOARD
B5 G5 F#5
E---------------|
B---------------|
G---------------|
D|---------|--4~------------------------|
A|5-4--0--|--2~---------------|--5--------4--------|
E------|--3--------2--------|

-------------------------|
-------------------------|
-------------------------|
|--4-------------------------|--4----------------|
|--2----------------|--5--------4--------|--2----------------|
--------|--3--------2----------------|

------------------------------|
------------------------------|
-----------------|--4--4--4--4--4--2------|
--------|--4-------19/-------|--4--4--4--4--4--2------|
|--5-------4--------|--2-------19/-------|--2--2--2--2--2--0------|
|--3-------2--------|----------19/--------------------|


Verse1
ACCOMP
D5
------------------------------|
------------------------------|
------------------------------|
---------------|--7--7--7--7--7--7--7--7--|
|--5--5--5--5--5--5--5--5--|--5--5--5--5--5--5--5--5--|
|--3--3--3--3--3--3--3--3-----------------|
BOWED
------------------------------|
------------------------------|
------------------------------|
------------------------------|
|--4--4--4--4--4--4--4--4--|--4--4--4--4--4--4--4--4--|
|--2--2--2--2--2--2--2--2--|--2--2--2--2--2--2--2--2--|

------------------------------|
------------------------------|
------------------------------|
---------------|--4--4--4--4--4--4--4--4--|
|--5--5--5--5--5--5--5--5--|--2--2--2--2--2--2--2--2--|
|--3--3--3--3--3--3--3--3-----------------|
BOWED
------------------------------|
------------------------------|
------------------------------|
------------------------------|
|--4--4--4--4--4--4--4--4--|--4--4--4--4-5/-4--------|
|--2--2--2--2--2--2--2--2--|--2--2--2-----------5--3~-|

-------------------------------|
-------------------------------|
-------------------------------|
----------------|--7--7--7--7--7--7--7--7--|
|---5--5--5--5--5--5--5--5--|--5--5--5--5--5--5--5--5--|
|---3--3--3--3--3--3--3--3-----------------|
BOWED
-------------------------------|
-------------------------------|
-------------------------------|
-------------------------------|
|---4--4--4--4--4--4--4--4--|--4--4--4--4--4--4--4--4--|
|---2--2--2--2--2--2--2--2--|--2--2--2--2--2--2--2--2--|

---------------------------|-------|-----|
---------------------------|-------|-----|
---------------------------|-------|-----|
---------------|--4--4--4--4--4--4--4--|-------|-----|
|--5--5--5--5--5--5--5--5--|--2--2--2--2--2--2--2--|---4~--|-----|
|--3--3--3--3--3--3--3--3--------------|---2~--|-----|

Chorus1
CHORUS 1
B5 D5
--------------|
--------------|
||*--4------------------------|--7----------------|
||*--4------------------------|--7----------------|
||---2------------------------|--5----------------|
--------------|
A5 G5
----------------------------|
----------------------------|
----------------------------|
|--7----------------|--5-------------5----|--5-------------5----|
|--7----------------|--5----5~-------5----|--5----5~-------5----|
|--5----------------|--3----3~-------3----|--3----3~-------3----|

----------------------||
----------------------||
---------------------*||
|--5-------------5----|--7-------------------*||
|--5----5~-------5----|--7----7~-----5--4-----||
|--3----3~-------3----|--5----5~-----------5--||

INTRO KEYBOARD

-------------|
-------------|
-------------|
|--------4-------|--------4----------|
|--------2---|-----5----4----|--------2----------|
-|-----3----2------------|
--------------------------|
--------------------------|
--------------------------|
---------|--4-------------------------|
|--5--------4--------|--2----------------|--5--------4--------|
|--3--------2----------------|--3--------2--------|

-----------------------|
-----------------------|
----------|--4--4--4--4--4--2------|
|--4--------19/-------|--4--4--4--4--4--2------|
|--2--------19/-------|--2--2--2--2--2--0------|
19/--------------------|

Verse2
ACCOMP
D5
------------------------------|
------------------------------|
------------------------------|
---------------|--7--7--7--7--7--7--7--7--|
|--5--5--5--5--5--5--5--5--|--5--5--5--5--5--5--5--5--|
|--3--3--3--3--3--3--3--3-----------------|
BOWED
------------------------------|
------------------------------|
------------------------------|
------------------------------|
|--4--4--4--4--4--4--4--4--|--4--4--4--4--4--4--4--4--|
|--2--2--2--2--2--2--2--2--|--2--2--2--2--2--2--2--2--|

------------------------------|
------------------------------|
------------------------------|
---------------|--4--4--4--4--4--4--4--4--|
|--5--5--5--5--5--5--5--5--|--2--2--2--2--2--2--2--2--|
|--3--3--3--3--3--3--3--3-----------------|
BOWED
------------------------------|
------------------------------|
------------------------------|
------------------------------|
|--4--4--4--4--4--4--4--4--|--4--4--4--4-5/-4--------|
|--2--2--2--2--2--2--2--2--|--2--2--2-----------5--3~-|

-------------------------------|
-------------------------------|
-------------------------------|
----------------|--7--7--7--7--7--7--7--7--|
|---5--5--5--5--5--5--5--5--|--5--5--5--5--5--5--5--5--|
|---3--3--3--3--3--3--3--3-----------------|
BOWED
-------------------------------|
-------------------------------|
-------------------------------|
-------------------------------|
|---4--4--4--4--4--4--4--4--|--4--4--4--4--4--4--4--4--|
|---2--2--2--2--2--2--2--2--|--2--2--2--2--2--2--2--2--|

---------------------------|-------|-----|
---------------------------|-------|-----|
---------------------------|-------|-----|
---------------|--4--4--4--4--4--4--4--|-------|-----|
|--5--5--5--5--5--5--5--5--|--2--2--2--2--2--2--2--|---4~--|-----|
|--3--3--3--3--3--3--3--3--------------|---2~--|-----|

Chorus1
CHORUS 1
B5 D5
--------------|
--------------|
||*--4------------------------|--7----------------|
||*--4------------------------|--7----------------|
||---2------------------------|--5----------------|
--------------|
A5 G5
----------------------------|
----------------------------|
----------------------------|
|--7----------------|--5-------------5----|--5-------------5----|
|--7----------------|--5----5~-------5----|--5----5~-------5----|
|--5----------------|--3----3~-------3----|--3----3~-------3----|

----------------------||
----------------------||
---------------------*||
|--5-------------5----|--7-------------------*||
|--5----5~-------5----|--7----7~-----5--4-----||
|--3----3~-------3----|--5----5~-----------5--||

INTRO KEYBOARD

-------------|
-------------|
-------------|
|--------4-------|--------4----------|
|--------2---|-----5----4----|--------2----------|
-|-----3----2------------|
--------------------------|
--------------------------|
--------------------------|
---------|--4-------------------------|
|--5--------4--------|--2----------------|--5--------4--------|
|--3--------2----------------|--3--------2--------|

-----| |-----|-----|
-----| |-----|-----|
-----| Bridge |-----|-----|
|--------4-------| Only Voice. |--4--|--4--|
|--------2---|-----5----4----| |--4--|--4--|
-|-----3----2----| |--2--|--2--|
Chorus2
CHORUS 2
C#5 E5
-------------|
-------------|
||*--6-----------------------|--9----------------|
||*--6-----------------------|--9----------------|
||---4-----------------------|--7----------------|
-------------|
B5 A5 3x
--------------------------||
--------------------------||
-------------------------*||
|--9-----------|--7-------------7----|--9----9~--------------*||
|--9-----------|--7----7~-------7----|--9----9~-----7--6------||
|--7-----------|--5----5~-------5----|--7----7~-----------7---||
C#5 E5 B5
-----------------|
-----------------|
|--6-----------|--9----------------------|
|--6-----------|--9--------------|--9----------------|
|--4-----------|--7--------------|--9----------------|
---------|--7----------------|
A5 3x
----------------||
----------------||
---------||*---------------------------*||
|--7------------7----||*--9----9~-----9----|--7-----------7----*||
|--7----7~------7----||---9----9~-----9----|--7----7~-----7-----||
|--5----5~------5----||---7----7~-----7----|--5----5~-----5-----||

---------------------||
---------------------||
---------------------||
|--9----9---------------|--11/---------------||
|--9----9------7--6-----|--11/---------------||
|--7----7------------7--|--9/----------------||

CHORUS 1
E------------------|
B------------------|
G||*---------------------------------------|
D||*----------4-----5b-5r-4--|----------4-----5b-5r-4--|
A||---2~---2-----2-----------|--2~---2-----2-----------|
E------------------|

----------------------------|
----------------------------|
----------------------------|
|----------4-----5b-5r-4--|----------4-----5b-5r-4--|
|--5~---5-----5-------------------------|
--------------|--5~---5-----5-----------|

-------------------------------|
-------------------------------|
-------------------------------|
|--------4---5b-5r-4--|--------4----5b-5r-4--|--------4---5b-5r-4--|
-------------------------------|
|--3~--3---3----------|--3~--3---3-----------|--3~--3---3----------|

-----------||
-----------||
----------*||
|--------4------------*||
|--0---0---0--5-4-----||
-------5---||
CHORUS 2

E------------------|
B------------------|
G||*----------------2b-2r-1--|----------1-----2b-2r-1--|
D||*----------6----------------------------|
A||---4~---4-----4-----------|--4~---4-----4-----------|
E------------------|

-----------------------------|
-----------------------------|
|---------1-----2b-2r-1-|-------1---2b-2r-1-|-------1---2b-2r-1--|
|--2~--2-----2---------------------------|
------------|-2~--2---2---------|-0~--0---0----------|
-----------------------------|
3x
-----------------|
-----------------|
|--------1------------*|2b-2r-1-|-------1---2b-2r-1--|
--2/-1----*||-------6--------------------|
|--2--2----2--------2--||-4~--4---4---------|-4~--4---4----------|
-----------------|

------------------|
------------------|
|----------1-----2b-2r-1--||*----------1-----2b-2r-1--|
|--2~---2-----2-----------||*-------------------------|
--------------||---2~---2-----2-----------|
------------------|
3x C#5
--------------||
--------------||
|--------1---2b-2r-1--*||------1-------------|--6/------------||
----------*|2/-1-----|--6/------------||
|--0~--0---0-----------||-2--2---2--------2--|--4/------------||
--------------||
INTRO KEYBOARD
E |-7-14-15-14-|-3-14-15-14-|-7-14-15-14-|-3-14-15-14-|-7-14-15-14-|
B -----|
G -----|
D -----|
A -----|
E -----|
|-3-14-15-14-|-7-14-15-14-|-7-|
--|---|
--|---|
--|---|
--|---|
--|---|
ACCOMP
E |-10-|-10-|-9-|---|-10-|-10-|-9-|---|-10-|-10-|-9-|---|-10-|
B |-8--|-10-|-7-|---|-8--|-10-|-7-|---|-8--|-10-|-7-|---|-8--|
G |----|----|---|---|----|----|---|---|----|----|---|---|----|
D |----|----|---|---|----|----|---|---|----|----|---|---|----|
A |----|----|---|---|----|----|---|---|----|----|---|---|----|
E |----|----|---|---|----|----|---|---|----|----|---|---|----|
|-10-|-9-|
|-8--|-7-|
|----|---|
|----|---|
|----|---|
|----|---|
BOWED
E |-10-|-9--7-|-5-|------|-10-|-9--7-|-5-|------|-10-|-9--7-|--5--|
B |-12-|-10-8-|-7-|------|-12-|-10-8-|-7-|------|-12-|-10-8-|--7--|
G |----|------|---|------|----|------|---|------|----|------|-----|
D |----|------|---|------|----|------|---|------|----|------|-----|
A |----|------|---|------|----|------|---|------|----|------|-----|
E |----|------|---|------|----|------|---|------|----|------|-----|




Ваше мнение



Капча