Him - This Fortress of Tears
Submitted By: Matte ([email protected])
Standard Tuning (e-A-D-G-B-E)
/ = slide
p = pull off
h = hammer
I'm 100% sure this is the way to play the song...
Intro:
E-----------------------------------------------------------|
B--2/3---2-2-2p0--------------------------------------------|
G--2/4---2-2-2p0--------------------------------------------|
D-------------------4h5p4-2~--------------------------------| Repeat twice
A-----------------------------------------------------------|
E-----------------------------------------------------------|
Verse 1:
E-----------------------------------------------------------|
B-----------------------------------------------------------|
G-----------------------------------------------------------|
D-----7/9-9-9-9--7/5-5-5------------------------------------|
A-----7/9-9-9-9--7/5-5-5------------------------------------|
E-----5/7-7-7-7--5/3-3-3--2h3p2p0---------------------------|
Verse 2:
E-----------------------------------------------------------|
B-----------------------------------------------------------|
G-----------------------------------------------------------|
D-9---7---5-------------------------------------------------|
A-9---7---5-------------------------------------------------|
E-7---5---3-------------------------------------------------|
Pre chorus:
E-----------------------------------------------------------|
B-----------------------------------------------------------|
G---7-7-7---------------------------------------------------|
D---7-7-7----7-7-7------------------------------------------|
A---5-5-5----7-7-7------------------------------------------|
E------------5-5-5------------------------------------------|
Chorus:
E-----------------------------------------------------------|
B-----------------------------------------------------------|
G--7-7-7-----------------------777--------------------------|
D--7-7-7--9-9-9--7-7-7--5-5-5--777-777----------------------|
A--5-5-5--9-9-9--7-7-7--5-5-5--555-777----------------------|
E---------7-7-7--5-5-5--3-3-3------555----------------------|
Solo will come later...
Please comment... [email protected]




Ваше мнение



Капча