Вступление:
1---------------5-------|--3-------------------------------|
2|--5-------5-------5-----------5---|------0-------0-------0-------0---|
3|------5-------5-------5-----5---5-|----0---0---0---0---0---0---0---0-|
4|----7---7---7---7---7---7---------|----------2-------2-------2-------| - 2 раза
5----------------------------------------------|
6|--5-------------------------------|--0-------------------------------|
1---------------5-------|--3---------------|--2---------------|
2|--5-------5-------5-----------5---|------0-------0---|------3-------3---|
3|------5-------5-------5-----5---5-|----0---0---0---0-|----2---2---2---2-|
4|----7---7---7---7---7---7---------|----------2-------|--0-------0-------|
5-------------------------------------|
6|--5-------------------------------|--0----------------------|

1---------------5-------|--3--|
2|--5-------5-------5-----------5---|-----|
3|------5-------5-------5-----5---5-|-----|
4|----7---7---7---7---7---7---------|-----|
5-----------------------|-----|
6|--5-------------------------------|--0--|
После вступления проигрышь аккордами:
C/Am/Em (с прижатым мезинцем на 3 ладу). C/Am/Em. C/Am/Em/D. C/Am/Em.

Em Am C
I hear you breath so far from here
Am C
I feel your touch so close and real
D Em C G
And I know my church is not of silver and gold
D Em C G
Its glory lies beyond judgment of souls
D Em C D
The commandments are of consolation and warmth
Chorus:
C Am Em
You know our sacred dream won´t fail
C Am Em
The sanctuary tender and so frail
C Am
THE SACRAMENT of love
Em D C
The sacrament of warmth is true
Am Em
The sacrament is you.

I hear you weep so far from here
I taste your tears like you´re next to me
And I know my weak prayers are not enought to heal
The ancient wounds so deep and so dear
The revelation is of hatred and fear.
Chorus:




Ваше мнение



Капча