THE HEARTLESS - HIM - Greatest Lovesongs Vol.666
This song was trascribted by Juhani Paaso
Enjoy it!


Your pain ain't love

Em Hm C
Em Hm C
Em Hm C
G D

Em D C
Can't you see he's the heartless
Your pain is not love
He's taking it too far
Don't you know it is wrong
You're the one for me lady
You're the one
If you'd only see in my heart
G D
You'd know know all is not lost

Em Hm C
Em Hm C
Em Hm C
G D

Em D C
Your time is running out
And you still haven't made up your mind
Can't you see he's the heartless
G D
And you're one of a kind

Em Hm C
Em Hm C
Em Hm C
G D
He's the heartless

C#5 H5
h ---------------------|
f# ---------------------|
d ---------------------|
A |-4---4-4---4---4---4---2-2------|
E |-4---4-4---4---4---4---2-2---0--|
H |-2---2-2---2---2---2---0-0-3----|

Em D C
You can't you see he's the heartless
Your pain won't ever be love
It doesn't matter how hard you try
G D
To you all is lost

Em Hm C
Em Hm C
Em Hm C
G D
He's the heartless

Chords with head-tune (H-E-A-d-f#-h)

C D Em G Hm
|-1-|-3-|-0-|-0-|-0-|
|-1-|-3-|-1-|-1-|-0-|
|-2-|-0-|-2-|-0-|-0-|
|-3-|-0-|-2-|-2-|-2-|
|-3-|-2-|-0-|-3-|-2-|
|-1-|-3-|---|---|-0-|




Ваше мнение



Капча