not the real tabs but , i was in my bed and played it like this :

e ---------------------------------------------
h ---------------------------------------------
G ---------------------------------------------
D ---------------------------------------------
A -11-10-8----8-10-10--11-11----13-15-15-------
E ---------11----------------11----------------

e ---------------------------------------------
h ---------------------------------------------
G ---------------------------------------------
D ---------------------------------------------
A -11-10-8----8-10-10--11--10------------------
E ---------11-----------------11--8------------

song by him
the bad tabs from [email protected] :-)




Ваше мнение



Капча