The song was removed by my friend Juhani Paaso ([email protected]).
Enjoy it!
album: HIM - Greatest Lovesongs vol. 666

h ------------------------------------------------------|
f# ------------------------------------------------------|
d ------------------------------------------------------|
A |-0-3-0-0-3-0-0-3-0-3-0-0-3-0-3-3-0-2-0-0-2-0-0-2-0-2-0-0-2-0-2-2-|
E ------------------------------------------------------|
H ------------------------------------------------------|

Hm
Your world is coming to it's end
But you don't have to be afraid - I'm here for you

Am Dm C
Save your happiness for tomorrow
Em Am
And today we'll drown in your tears
Dm C Em
A drop of your blood tastes like wine today

h ------------------------------------------------------|
f# ------------------------------------------------------|
d ------------------------------------------------------|
A |-0-3-0-0-3-0-0-3-0-3-0-0-3-0-3-3-0-2-0-0-2-0-0-2-0-2-0-0-2-0-2-2-|
E ------------------------------------------------------|
H ------------------------------------------------------|

Hm
Come closer my dear
It is just the beginning of the end
Yes, I'm here for you

Am Dm C
Save your happiness for tomorrow
Em Am
And today we'll drown in your tears
Dm C Em
A drop of your blood tastes like wine today

h ------------------------------------------------------|
f# ------------------------------------------------------|
d ------------------------------------------------------|
A |-0-3-0-0-3-0-0-3-0-3-0-0-3-0-3-3-0-2-0-0-2-0-0-2-0-2-0-0-2-0-2-2-|
E ------------------------------------------------------|
H ------------------------------------------------------|

Em

h ------------------------------------------------------|
f# ------------------------------------------------------|
d ------------------------------------------------------|
A ------------------------------------------------------|
E |-0-3-0-0-3-0-0-3-0-3-0-0-3-0-3-3-0-2-0-0-2-0-0-2-0-2-0-0-2-0-2-2-|
H ------------------------------------------------------|

Am Am
And because I love you so, and I'm here for you
Em Am G
Save your happiness for tomorrow
Hm Em
And today we'll drown in your tears
Am G Hm
A drop of your blood tastes like wine today
Em Am G
Save your happiness for tomorrow
Hm Em
And today we'll drown in your tears
Am G Hm
Ohh and your blood tastes like life today

C5
h ------------------------------------------|
f# ------------------------------------------|
d ------------------------------------------|
A |-3---3---3---3---3-3---------------------------------|
E |-3---3---3---3---3-3-0-3-0-0-3-0-0-3-0-2-0-0-2-0-0-2-|
H |-1---1---1---1---1-1---------------------------------|
Today
Will you let it rain
C5 D5
Oh let it rain, so won't you let it rain
h ------------------------------------------------------|
f# ------------------------------------------------------|
d ------------------------------------------------------|
A ------------------------------------------------------|
E |-0-3-0-0-3-0-0-3-0-3-0-0-3-0-3-3-0-2-0-0-2-0-0-2-0-2-0-0-2-0-2-2-|
H ------------------------------------------------------|
Oh, let it rain
Won't you let it.. rain

Chords with head-tune (H-E-A-d-f#-h)

C D Em G Am Hm
|-1-|-3-|-0-|-0-|-1-|-0-|
|-1-|-3-|-1-|-1-|-3-|-0-|
|-2-|-0-|-2-|-0-|-2-|-0-|
|-3-|-0-|-2-|-2-|-0-|-2-|
|-3-|-2-|-0-|-3-|---|-2-|
|-1-|-3-|---|---|---|-0-|




Ваше мнение



Капча