Greatest Lovesongs vol. 666
This song was trascribted by -L.H- ([email protected])
Enjoy it!
INTRO:
Guitar 1
e-----------------------------------------------------------------------------
b-----------------------------------------------------------------------------
g---------8-9-9-----------8-9-6-8-9---------8-9-9-----------8-9-6-4-2---------
D-2-2-2-2-8-9-9---2-2-2-2-8-9-6-8-9-2-2-2-2-8-9-9---2-2-2-2-8-9-6-4-2---------
A-2-2-2-2-6/7-7---2-2-2-2-6/7-4-6-7-2-2-2-2-6/7-7---2-2-2-2-6/7-4-2-0---------
E-0-0-0-0---------0-0-0-0-----------0-0-0-0---------0-0-0-0-------------------
PM-------| |-------| |-------| |-------|
Guitar 2
e-----------------------------------------------------------------------------
b---------9---------------9-----------------9---------------9-----------------
g-----------8-9-------------8-6-8-9-----------8-9-------------8-6-8-9---------
D-----------------------------------------------------------------------------
A-7-7-7-7---------7-7-7-7-----------7-7-7-7---------7-7-7-7-------------------
E-----------------------------------------------------------------------------
PM-------| |-------| |-------| |-------|
A-6-6-6-6-6-6-6-6-6-6-6-6-6-6-6-6-6-6-6-6-6-6-6-6-4-4-4-4-4-4-4-4-------------
E-4-4-4-4-4-4-4-4-4-4-4-4-4-4-4-4-7-7-7-7-7-7-7-7-2-2-2-2-2-2-2-2-------------
PM --------------------------------------------------|
CH:
e----------------------------------
b----------------------------------
g-----------------8-8-8-8-4-4------
D-6-6-6-6-6-6-6-6-8-8-8-8-4-4-4-4--
A-6-6-6-6-6-6-6-6-6-6-6-6-2-2-4-4--
E-4-4-4-4-4-4-4-4-------------2-2--
e----------------------------------
b----------------------------------
g----------------------------------
D-----4p2-----4p2-----4p2-----4p2--
A-4-4-----4-4-----4-4-----4-4------
E----------------------------------
PM---| |---| |---| |---|




Ваше мнение



Капча